PrimaNota.ru - самый крупный в мире бесплатный архив песенных текстов, аккордов, табулатур и нот


Gen Rosso - Per Me - таба, видео

Регистрация Запомнить меня
Войти через:  Facebook Google Twitter Vk Yandex Mail.ru

Gen Rosso - Per Me - таба, видео

Печатать
Просмотров: 88
Уроки эстрадного вокала в Санкт-Петербурге
Авторы музыки: Benedikt Enderle, Giampietro Balduzzi
Авторы текста: Valerio Cipri
		   --------
Non so come mai, ma ho deciso di dare una mano ad ANTARES e ad altri per

la trascrizione delle canzoni religiose. Questa è una bellisima canzone
dei genrosso in concerto per la pace.

PER ME

INTRO:

 D                                        Re4

|-10---9----5--------2--0------5----7------3--2--2^3---|
|-7-----------------3-----3---------------3------------|
|------9----6------2---------------------2-------------|
|-0---------------0------------0--------0--------------|
|--------------------------------------------------0---|
|------------------------------------------------------|

  D9         D           La4/9                A

|------0--3---2------0-------------------0------------|
|---3-----3-----3------3---0----------0-----0-----2---|
|--2--------------------------2----2-----------0------|
|-0-----------------------------0---------------------|
|--------------------------0--------------------------|
|-----------------------------------------------------|

          D
Pensarti lì
              Em
solo su quel legno
            Sol
e sapere che
                D
il mio peso è lì
sopra di te.
                Em
Sapere che adesso
               Sol
il debito è pagato: ora
La4/9            Re7+
Tu l'hai cancellato
             Mim2/7
e ha fatto questo per me,
La4/9
solo per me!     (ripete intro)



Pensarti lì nella morte viva
e sapere che la mia pace è lì
dentro di Te.
Sapere che hai preso la disperazione,
ogni lotta e divisione
e hai fatto questo per me,
solo per me!

La/4

|-----------------------------------------------
|-3--2---2^3--2-----3--2---2^3------------------
|------0--------0--------0-----0----------------
|-----------------------------------------------
|-0-------0---------0---------------------------
|-----------------------------------------------
                    D

|-------------------------2--3--5---------------
|-3--2---2^3--2--------3------------------------
|------0--------0----2--------------------------
|-0-----------------0---------------------------
|-----------------------------------------------
|-----------------------------------------------

    Dm
Per me hai fatto
         Sol
questa pazzia,
  Sol(6)Do7+(4)/(9)  F
per me, per me!
    Am7  Dm7
E' troppo forte
    Am7    Em7
è troppo grande
    Dm7              Am7 Bm7
e io devo cantare, gridare che:

  E    A        D  E
Rit:Sei Tu la mia pace,
            Bm     A       E
Tu che hai dato la vita per me.
Sei Tu la mia pace,
voglio dare la vita per Te.
Fa#m      D
Solo per Te.

|-9-----7----5-------------------------------
|--------------------------------------------
|-9-----7----6-------------------------------
|-0------------------------------------------
|--------------------------------------------
|--------------------------------------------

Vederti lì, D dell'Universo e sapere che
ora niente sei nel tuo "Perché?".
Sapere che il dolore che ho rifiutato
ora Tu l'hai trasformato e hai fatto questo
per me, Solo per me!



Pensare che Hai sete d'amore e sapere che
la sorgente è lì nasce da Te.
Vedere che sgorga dalle spine,
dal deserto del Tuo cuore
e hai fatto questo per me,
solo per me!

La/4

|-----------------------------------------------
|-3--2---2^3--2-----3--2---2^3------------------
|------0--------0--------0-----0----------------
|-----------------------------------------------
|-0-------0---------0---------------------------
|-----------------------------------------------

                    D
|-------------------------2--3--5---------------
|-3--2---2^3--2--------3------------------------
|------0--------0----2--------------------------
|-0-----------------0---------------------------
|-----------------------------------------------
|-----------------------------------------------

    Dm
Per me hai fatto
         Sol
questa pazzia,
  Sol(6)Do7+(4)/(9)  F
per me, per me!
    Am7  Dm7
E' troppo forte
    Am7    Em7
è troppo grande
    Dm7              Am7 Bm7
e io devo cantare, gridare che:
  E    A        D  E
Rit:Sei Tu la mia pace,
            Bm
Tu che hai dato la vita per me.
Sei Tu la mia pace,
voglio dare la vita per Te.
 E    A        D  E
Sei Tu la mia pace,
            Bm
Tu che hai dato la vita per me.
Sei Tu la mia pace,
voglio dare la vita per Te.
Fa#m      D
Solo per Te.

|-9-----7----5-------------------------------
|--------------------------------------------
|-9-----7----6-------------------------------
|-0------------------------------------------
|--------------------------------------------
|--------------------------------------------



Ciao a tutti!
                                                Luca
rluc@freemail.it




     
Добавлено: 20.09.2013
Другие материалы по этой песне:
  • Аккорды и текст

Страница создана 20.09.2013
http://primanota.ru/gen-rosso/per-me-chords.htm
Привет, Гость.
Предлагаем пройти революционный курс по гитаре.
Подарок от PrimaNota.Ru, забирай!