PrimaNota.ru - самый крупный в мире бесплатный архив песенных текстов, аккордов, табулатур и нот


Gemelli Diversi - Un Giorno Di Sole - текст песни, таба, видео

Регистрация Запомнить меня
Войти через:  Facebook Google Twitter Vk Yandex Mail.ru

Gemelli Diversi - Un Giorno Di Sole - текст песни, таба, видео

Печатать
Просмотров: 128
		   Gemelli DiVersi - Reality show - 09 - Un giorno di sole

a cura di simonecasadei@hotmail.it

E|------------------|--------------------|----------------7---|-----------------8---|
B|---------------12-|-----------------10-|----------------8---|-----------------8---|
G|-----------12-----|-------------7------|-----------7--------|-----------7---------|
D|------------------|--------------------|--------------------|---------------------|
A|----10------------|-----9--------------|---7----------------|---------------------|
E|------------------|--------------------|--------------------|----7=8--------------|


E|---3=5----3--|
G|---3=5----3--|
B|-------------|
D|-------------|
A|-------------|
E|-------------|

Chords:

SOL   RE    MI-    DO

VARIAZIONE:

RE    MI-   DO
RE    MI-   DO
RE    MI-   DO
RE       DO     ||  SOL   RE    MI-    DO


	     
Добавлено: 27.06.2013
Другие материалы по этой песне:
  • Аккорды и текст

Страница создана 04.07.2012
http://primanota.ru/gemelli-diversi/un-giorno-di-sole-chords.htm
Привет, Гость.
Предлагаем пройти революционный курс по гитаре.
Подарок от PrimaNota.Ru, забирай!