PrimaNota.ru - самый крупный в мире бесплатный архив песенных текстов, аккордов, табулатур и нот


Gemelli Diversi - Tu No - текст песни, таба, видео

Регистрация Запомнить меня
Войти через:  Facebook Google Twitter Vk Yandex Mail.ru

Gemelli Diversi - Tu No - текст песни, таба, видео

Печатать
Просмотров: 158
		   --------

Tu No (Gemelli Diversi)


Per ora ho tabulato solo l'intro. C'è un capotasto al primo tasto.
Tuning : EADGBE   Time Signature: 4/4
Capo 1

F                             Sol
 |       |       |       |        |       |       |       |
|--------------------------------|--------------------------------|
|------------1-------------------|----3-------3-------------------|
|--------2---0h--2---2-------0---|----2-------4-------0h--2-------|
|--------------------------------|--------------------------------|
|--------------------------------|--------------------------------|
|1-------1-------1-------1-------|3-------3---3-------------------|

Am7
 |       |       |       |        |       |       |       |
|------------3---------------3---|------------1-----------0-------|
|------------0h--1---1-----------|----1-------0h--1---0-----------|
|------------------------2-------|--------2-----------------------|
|--------------------------------|--------------------------------|
|0-------0-------0---------------|0-------------------------------|
|--------------------------------|--------------------------------|

F                             Sol
 |       |       |       |        |       |       |       |
|--------------------------------|--------------------------------|
|------------1-------------------|----3-------3-----------3-------|
|--------2---0h--2---2-------0---|----2-------4-------------------|
|--------------------------------|--------------------5-----------|
|--------------------------------|--------------------------------|
|1-------1-------1-------1-------|3-------3-----------------------|

Al primo giro fa così:
Am7
 |       |       |       |        |       |       |       |
|--------------------------------|--------------------------------|
|------------0h--1-----------1---|------------0h--1p--0---1-------|
|2-----------2-------2p--0-------|----2p--0-----------------------|
|--------------------------------|--------------------------------|
|0-------0-------0---------------|0---------------0---------------|
|--------------------------------|--------------------------------|

Così al secondo:
 |       |       |       |        |       |       |       |
|--------------------------------|--------------------------------|
|/5---------3-----------1--------|--------------------------------|
|--------------------------------|2-------------------------------|
|--------------------------------|--------------------------------|
|--------------------------------|--------------------------------|
|--------------------------------|--------------------------------|

Ciao
Bonzo

Correzioni a ilbonzob@libero.it


     
Добавлено: 16.07.2013
Другие материалы по этой песне:
  • Аккорды и текст

Страница создана 28.04.2012
http://primanota.ru/gemelli-diversi/tu-no-chords.htm
Привет, Гость.
Предлагаем пройти революционный курс по гитаре.
Подарок от PrimaNota.Ru, забирай!