PrimaNota.ru - самый крупный в мире бесплатный архив песенных текстов, аккордов, табулатур и нот


Geddy Lee - My Favorite Headache - таба, бас-таба, видео

Регистрация Запомнить меня
Войти через:  Facebook Google Twitter Vk Yandex Mail.ru

Geddy Lee - My Favorite Headache - таба, бас-таба, видео

Печатать
Просмотров: 124
Уроки эстрадного вокала в Санкт-Петербурге
CD: My Favorite Headache
Artist: Geddy Lee
Song: My Favorite Headache
Music: Geddy Lee/ Ben Mink
Lyrics: Geddy Lee
Tabbed By:  Vaine Parde'

Allright I ardy' got the Bass Tab done fer this, G I figured why the
hell not do the Guitar Part. It was a little different playing method than
Alex's (Which Im Used To) Thanks to Ben,.. but I got the hang of it.
Well here it is.


This Come$ in Right after the Ba$$ Intro
E|--16-16-16--15-15-15-15--13-13-13--15-15-15-15------|*2
B|--15-15-15--15-15-15-15--15-15-15--15-15-15-15------|
G|----------------------------------------------------|
D|----------------------------------------------------|
A|----------------------------------------------------|
E|----------------------------------------------------|

E|-13^-s-/--------------------------------------------|
B|-15^-s-/--------------------------------------------|
G|----------------------------------------------------|
D|----------------------------------------------------|
A|----------------------------------------------------|
E|----------------------------------------------------|

E|----------------------------------------------------|*2
B|----------------------------------------------------|
G|----------------------------------------------------|
D|--9--9--9---8--8--8--8---6-6-6----------------------|
A|--11-11-11--10-10-10-10--8-8-8----------------------|
E|----------------------------------------------------|

E|----------------------------------------------------|*2
B|----------------------------------------------------|
G|----------------------------------------------------|
D|--6^-s-/--------------------------------------------|
A|--8^-s-/--------------------------------------------|
E|----------------------------------------------------|

I found this little Riff when I was tinkering around
with the audio controls on the PC, I guess it was one of
those hidden trademark things. It's Played with the above
Riff.
E|----------------------------------------------------|
B|----------------------------------------------------|
G|----------------------------------------------------|
D|----------------------------------------------------|
A|----------------------------------------------------|
E|--3-0-0-0-3-0-0-0-3-0-0-3^-0-0-0-3-0-0-0-3-3-0-0-0--|

Then This $ucker Pop$ in, The whole $etting to the Headache thing.
E|-16------15-----15---13------15-----15--------------|*2
B|---15-15---15-15--15---15-15---15-15--15------------|
G|----------------------------------------------------|
D|----------------------------------------------------|
A|----------------------------------------------------|
E|----------------------------------------------------|

E|-13^-s-/--------------------------------------------|
B|-15^-s-/--------------------------------------------|
G|----------------------------------------------------|
D|----------------------------------------------------|
A|----------------------------------------------------|
E|----------------------------------------------------|

Play this when Geddy's singing
"One man standing on the plains of Vain...." part.
E|----------------------------------------------------|
B|----------------------------------------------------|
G|----------------------------------------------------|
D|----------------------------------------------------|
A|----------------------------------------------------|
E|-10-s/--3-4------10-s/--3-4-------10-s/--3-4-3^-----|

Or Played.
E|----------------------------------------------------|
B|----------------------------------------------------|
G|----------------------------------------------------|
D|----------------------------------------------------|
A|-4----4----4----------------------------------------|
E|---3-4--3-4-3-4-3^----------------------------------|
What Ever is esiest..

This is played on an Acoustic with the above riff
E|----------------------------------------------------|
B|----------------------------------------------------|
G|----------------------------------------------------|
D|---------6-6-6-6------------------------------------|
A|-5-5-5-5-4-4-4-4------------------------------------|
E|-3-3-3-3--------------------------------------------|


And Last But not Least
E|----------------------------------------------------|*2
B|----------------------------------------------------|
G|----------------------------------------------------|
D|----------------------------------------------------|
A|-9-s\-12--9-/-7-/-9---------------------------------|
E|----------------------------------------------------|


Tab Explanation:
S=  Slide... /=  \=>
^=  Bend Up
     
Добавлено: 15.09.2013
Другие материалы по этой песне:
  • Аккорды и текст

Страница создана 01.06.2013
http://primanota.ru/geddy-lee/my-favorite-headache-chords.htm
Привет, Гость.
Предлагаем пройти революционный курс по гитаре.
Подарок от PrimaNota.Ru, забирай!