PrimaNota.ru - самый крупный в мире бесплатный архив песенных текстов, аккордов, табулатур и нот


Gbh - Womb With A View - аккорды и текст, видео

Регистрация Запомнить меня
Войти через:  Facebook Google Twitter Vk Yandex Mail.ru

Gbh - Womb With A View - аккорды и текст, видео

Печатать
Просмотров: 167
Авторы: Andrew Williams, Colin Abrahall, Colin Blyth, Ross Lomas

Womb With A View
Gbh
intro

------------------------------------------|      4x
----------1-----------------3-------------|
-------0----0---0--------0-----0-----0----|
----2---------2-------4-----------4-------|
-3-----------------5----------------------|
------------------------------------------|

riff

-2--0--0--3---------2--0--0--2-------------|
-3--1--1--3---------3--1--1--3-------------|
-4--2--0--0---------4--2--0--2-------------|
-4--2--2--0---------4--2--2----------------|
-2-----3--2---------2-----3----------------|
-2--------3---------2----------------------|

chorus

-3--0--0--2-------------------------------|
-3--1--1--3-------------------------------|
-0--2--0--2-------------------------------|
-0--2--2----------------------------------|
-2-----3----------------------------------|
-3----------------------------------------|
Добавлено: 30.07.2015
Другие материалы по этой песне:
  • Аккорды и текст

Страница создана 04.05.2012
http://primanota.ru/gbh/womb-with-a-view-chords.htm
Привет, Гость.
Предлагаем пройти революционный курс по гитаре.
Подарок от PrimaNota.Ru, забирай!