PrimaNota.ru - самый крупный в мире бесплатный архив песенных текстов, аккордов, табулатур и нот


Gbh - No Survivors - текст песни, таба, бас-таба, видео

Регистрация Запомнить меня
Войти через:  Facebook Google Twitter Vk Yandex Mail.ru

Gbh - No Survivors - текст песни, таба, бас-таба, видео

Печатать
Просмотров: 227
Авторы: Andrew Williams, Colin Abrahall, Colin Blyth, Ross Lomas

----------------------------------------------------------------------------
                             NO SURVIVORS - G.B.H
----------------------------------------------------------------------------
Tabbed by: Taylor
Email: NoFX@herzeleid.net

Tuning: Standard

Intro:
e|---0---0---0---0---0---0---0---0---0---0---0---0---0---0---0---0---|
B|-0---0---0---0---2---2---2---2---0---0---0---0---2---2---2---2-----|
G|-------------------------------------------------------------------|x2
D|-------------------------------------------------------------------|
A|-------------------------------------------------------------------|
E|-------------------------------------------------------------------|

Verse/Main Riff                  Verse Middle
e|------------------------------|-------------------|
B|------------------------------|-------------------|
G|--9-9-9-9-9-9-9-9-9-9-9-9--8--|-------------------|
D|--9-9-9-9-9-9-9-9-9-9-9-9--8--|-11111111--9-9-9-9-|
A|--7-7-7-7-7-7-7-7-7-7-7-7--6--|-11111111--9-9-9-9-|
E|------------------------------|--9-9-9-9--7-7-7-7-|

Chorus:
e|-------------------------------------------|
B|-------------------------------------------|
G|-9-9--7--9-----------9-9--7--9-------------|
D|-9-9--7--9--9-9-9-9--9-9--7--9--9-9-9-9----|
A|-7-7--5--7--9-9-9-9--7-7--5--7--9-9-9-9----|
E|------------7-7-7-7-------------7-7-7-7----|


Solo:
e|---------------------------------------------------------------|
B|---------------------------------------------------------------|
G|---------------------------------------------------------------|
D|-------------------------------------9p6h9p6h9p6h9p6h9p6h9p6h--|
A|--9---7-6-7--6-7--9---7-6-7--6--7-6----------------------------|
E|--0---0-0-0--0-0--0---0-0-0--0--0-0----------------------------|

e|-----------------------------------------------------------------|
B|-----------------------------------------------------------------|
G|-------------------------------------------------------------11--|
D|-------------------------------------------------------------11--|
A|--9--7-6-7--6-7--9--7-6-7--6-7--9--7-6-7--6-7--9--7-6-7--6-7--9--|
E|--0--0-0-0--0-0--0--0-0-0--0-0--0--0-0-0--0-0--0--0-0-0--0-0-----|


Thats it, I think
Добавлено: 18.07.2012
Другие материалы по этой песне:
  • Аккорды и текст

Страница создана 12.03.2012
http://primanota.ru/gbh/no-survivors-chords.htm
Привет, Гость.
Предлагаем пройти революционный курс по гитаре.
Подарок от PrimaNota.Ru, забирай!