PrimaNota.ru - самый крупный в мире бесплатный архив песенных текстов, аккордов, табулатур и нот


Gbh - Kids Get Down - таба, видео

Регистрация Запомнить меня
Войти через:  Facebook Google Twitter Vk Yandex Mail.ru

Gbh - Kids Get Down - таба, видео

Печатать
Просмотров: 109
--------------------------------------------------------------
Artist    :  GBH
Song      :  Kids Get Down
Album     :  Perfume And Piss
--------------------------------------------------------------
Tabbed By :  Ricky Thomson
Date      :  11th June 2013
Contact   :  punkalert@gmail.com
--------------------------------------------------------------


Tuning: Standard

\ = slide down
x = mute


Order:
 - intro 
 - verse 
 - chorus
 - verse x2
 - chorus
 - solo 
 - verse x2
 - chorus
 - end


Note: There is a second guitar track on the CD, which plays 
verse/chorus during the solo. Haven't managed to tab the solo yet (sorry).

Have fun!


[intro]
e|-----------------------------------|
B|-----------------------------------|
G|-----------------------------------| 
D|--------9--9-11-9-9-9-11-9-9-9-11--|
A|--7-7-7-7--7-7--7-7-7-7--7-7-7-7---|
E|--5-5-5----------------------------|

e|-----------------------------------|
B|-----------------------------------|
G|-----------------------------------| 
D|--------9--9-11-9-9-9-11-9-9-9-11--|
A|--7-7-7-7--7-7--7-7-7-7--7-7-7-7---|
E|--5-5-5----------------------------|

e|-----------------------------------|
B|-----------------------------------|
G|-----------------------------------| 
D|--------9--9-11-9-9-9-11-9-9-9-11--|
A|--7-7-7-7--7-7--7-7-7-7--7-7-7-7---|
E|--5-5-5----------------------------|

e|-----------------------------------|
B|-----------------------------------|
G|-----------------------------------|
D|--101010-9--9-11-9-9-9-11-9\-------|
A|--8-8-8--7--7-7--7-7-7-7--7\-------|
E|-----------------------------------|


[verse]
e|-----------------------------------|
B|-----------------------------------|
G|-----------------------------------| 
D|--------9--9-11-9-9-9-11-9-9-9-11--|
A|--7-7-7-7--7-7--7-7-7-7--7-7-7-7---|
E|--5-5-5----------------------------|

e|-----------------------------------|
B|-----------------------------------|
G|-----------------------------------| 
D|--------9--9-11-9-9-9-11-9-9-9-11--|
A|--7-7-7-7--7-7--7-7-7-7--7-7-7-7---|
E|--5-5-5----------------------------|

e|-----------------------------------|
B|-----------------------------------|
G|-----------------------------------| 
D|--------9--9-11-9-9-9-11-9-9-9-11--|
A|--7-7-7-7--7-7--7-7-7-7--7-7-7-7---|
E|--5-5-5----------------------------|

e|--------------------------------------------|
B|--------------------------------------------|
G|--------------------------------------------|
D|--101010-9--9-11-9-9-9-11-9-9-9-11-9-9-9-9--|
A|--8-8-8--7--7-7--7-7-7-7--7-7-7-7--7-7-7-7--|
E|--------------------------------------------|


[chorus]

e||---------------------------------------------------------||
B||---------------------------------------------------------||
G||---------------------------------------------------------|| x3
D||--5x--------7x--------9--9-11-9-9-9-11-9-9-9-11-9-9-9-9--||
A||--3x---5x---5x---7x---7--7-7--7-7-7-7--7-7-7-7--7-7-7-7--||
E||-------3x--------5x--------------------------------------||

e|---------------------------------------------------------|
B|---------------------------------------------------------|
G|---------------------------------------------------------|
D|--5x--------7x---------9x--------------------------------|
A|--3x---5x---5x---7x----7x--------------------------------|
E|-------3x--------5x--------------------------------------|



[end]

e|-----------------------------------|
B|-----------------------------------|
G|-----------------------------------| 
D|--------9\-------------------------|
A|--7-7-7-7\-------------------------|
E|--5-5-5----------------------------|

Добавлено: 26.07.2013
Вам также может быть интересно:
Другие материалы по этой песне:
  • Аккорды и текст

Страница создана 26.07.2013
http://primanota.ru/gbh/kids-get-down-chords.htm
Привет, Гость.
Предлагаем пройти революционный курс по гитаре.
Подарок от PrimaNota.Ru, забирай!