PrimaNota.ru - самый крупный в мире бесплатный архив песенных текстов, аккордов, табулатур и нот


Gbh - Faster Faster - текст песни, таба, видео

Регистрация Запомнить меня
Войти через:  Facebook Google Twitter Vk Yandex Mail.ru

Gbh - Faster Faster - текст песни, таба, видео

Печатать
Просмотров: 184
Авторы: Andrew Williams, Colin Abrahall, Colin Blyth, Ross Lomas

Artist: G.B.H.
Song: Faster, Fatser
Album: City Baby's Revenge


Riff 1 (Intro/Chorus)
e|---------------------------------------------|
B|---------------------------------------------|
G|--9h11--11--11--11--11--9h11--11--12--11-7---|
D|--0-----0---0---0---0---0-----0---0---0--0---|
A|---------------------------------------------|
E|---------------------------------------------|
    PM-----------------------------------|


Riff 2 Bridge                                                                   
e|---------------------------------------------------------------------------------------------------|
B|--14---14--14--14--14---11--12---12--12--12--12---9--11---11--11--11--11---7--9---7--9--11--9--11--|
G|--0----0---0---0---0----0---0----0---0---0---0----0--0----0---0---0---0----0--0---0--0--0---0--0---|
D|---------------------------------------------------------------------------------------------------|
A|---------------------------------------------------------------------------------------------------|
E|---------------------------------------------------------------------------------------------------|


Riff 3 (Verse)
e|---------------------------------------------|
B|---------------------------------------------|
G|---------------------------------------------|
D|-----------------------------------10-9------|
A|--7--7---7---9--9---9---7--7---7---8--7--10--|
E|--5--5---5---7--7---7---5--5---5---------8---|
    PM-|       PM-|       PM-|


Riff 4
e|---------------------|
B|---------------------|
G|---------------------|
D|--7s9---9--9----(9)--|
A|--5s7---7--7----(7)--|
E|---------------------|


End
e|-----|
B|-----|
G|-----|
D|-----|
A|--7--|
E|--5--|


Songstructure:

Intro: Riff 1 4x
       Riff 2 2x

Verse 1: Riff 3 4x

Chorus: Riff 1 4x
        Riff 4 4x

Verse 2: Riff 3 6x

Chorus: Riff 1 4x
        Riff 4 4x

Interlude: Riff 2 2x

Verse 3: Riff 3 6x

Chorus: Riff 1 4x
        Riff 4 4x

Verse 4: Riff 3 4x (complete palmmuted!)
         Riff 3 4x (singer repeat 1st verse)

Chorus:  Riff 1 3x
         End
Добавлено: 22.08.2015
Другие материалы по этой песне:
  • Аккорды и текст

Страница создана 03.04.2012
http://primanota.ru/gbh/faster-faster-chords.htm
Привет, Гость.
Предлагаем пройти революционный курс по гитаре.
Подарок от PrimaNota.Ru, забирай!