PrimaNota.ru - самый крупный в мире бесплатный архив песенных текстов, аккордов, табулатур и нот


Gbh - Chrush Em - таба, видео

Регистрация Запомнить меня
Войти через:  Facebook Google Twitter Vk Yandex Mail.ru

Gbh - Chrush Em - таба, видео

Печатать
Просмотров: 146
Уроки эстрадного вокала в Санкт-Петербурге
          INTRO
 e------------------------------------------------------------|
 B------------------------------------------------------------|
 G-----0-7-0-0-7-0-0-7-0--7-7-----0-7-0-0-9-0-0-7--7-7--5-9---|
 D--5---------------------7-7--5-------------------7-7--5-9---|
 A--5---------------------5-5--5-------------------5-5--3-7---|
 E--3--------------------------3------------------------------|

 e------------------------------------------------------------|
 B------------------------------------------------------------|
 G--7-7-7-7-7-7-7-7-------------------5-5-5-5-5-5-5-5---------|
 D--7-7-7-7-7-7-7-7--5-5-5-5-5-5-5-5--5-5-5-5-5-5-5-5---------|
 A--5-5-5-5-5-5-5-5--5-5-5-5-5-5-5-5--3-3-3-3-3-3-3-3---------|
 E-------------------3-3-3-3-3-3-3-3--------------------------|
                   "Send in the goon sqaud..."
 e------------------------------------------------------------|
 B------------------------------------------------------------|
 G-------------------5-5-5-5-5-5-5-5--------------------------|
 D--5-5-5-5-5-5-5-5--5-5-5-5-5-5-5-5--4-5--4-5--4-5--4-5------|
 A--5-5-5-5-5-5-5-5--3-3-3-3-3-3-3-3--4-5--4-5--4-5--4-5------|
 E--3-3-3-3-3-3-3-3-------------------2s3--2s3--2s3--2s3------|

 e------------------------------------------------------------|
 B------------------------------------------------------------|
 G--5-5-5-5-5-5-5-5----------------------5-5-5-5-5-5-5-5------|
 D--5-5-5-5-5-5-5-5--4-5--4-5--4-5--4-5--5-5-5-5-5-5-5-5------|
 A--3-3-3-3-3-3-3-3--4-5--4-5--4-5--4-5--3-3-3-3-3-3-3-3------|
 E-------------------2s3--2s3--2s3--2s3-----------------------|

    Chorus
 e------------------------------------------------------------|
 B------------------------------------------------------------|
 G--7-7-7-7--9-9-9-9--5-5-5-5-------------7-7-7-7--9-9-9-9----|
 D--7-7-7-7--9-9-9-9--5-5-5-5--5-5-5-5----7-7-7-7--9-9-9-9----|
 A--5-5-5-5--7-7-7-7--3-3-3-3--5-5-5-5----5-5-5-5--7-7-7-7----|
 E-----------------------------3-3-3-3------------------------|

 e------------------------------------------------------------|
 B------------------------------------------------------------|
 G--5-5-5-5-5-5-5-5--7-7-7-7--9-9-9-9--5-5-5-5----------------|
 D--5-5-5-5-5-5-5-5--7-7-7-7--9-9-9-9--5-5-5-5--5-5-5-5-------|
 A--3-3-3-3-3-3-3-3--5-5-5-5--7-7-7-7--3-3-3-3--5-5-5-5-------|
 E----------------------------------------------3-3-3-3-------|
                     "You've gotta chrush em..."

 e------------------------------------------------------------|
 B------------------------------------------------------------|
 G----------------7-7-7-7-7-7-7-7-----------------------------|
 D----------------7-7-7-7-7-7-7-7-----------------------------|
 A--3-2-2-0-------5-5-5-5-5-5-5-5-----------------------------|
 E-----------3-3----------------------------------------------|

  Ok..repeat all this once more except the intro


        Solo1
 e------------------------------------------------------------|
 B------------------------------------------------------------|
 G------------------------------------------------------------|
 D--9-10-9-7-4s5--9-10-9-7-4s5--9-10-9-7-4s5--9-10-12-9s10----|
 A------------------------------------------------------------|
 E------------------------------------------------------------|
        Solo2
 e---------------------|
 B---------------------|
 G--12-12-12-12-12s14--| x4
 D---------------------|
 A---------------------|
 E---------------------|

 Play chorus one more time,then the verse before chorus and chorus again.

 Then solo1 again and...

 e--------------------------------------|
 B--------------------------------------|
 G-------------------5-5-5-5-5-5-5-5----|
 D--5-5-5-5-5-5-5-5--5-5-5-5-5-5-5-5----| x2
 A--5-5-5-5-5-5-5-5--3-3-3-3-3-3-3-3----|
 E--3-3-3-3-3-3-3-3---------------------|

 e--------------------------------------|
 B--------------------------------------|
 G-----0-7-0-0-7-0-0-7-7--7-7-----------|
 D--5---------------------7-7--5--------|
 A--5---------------------5-5--5--------|
 E--3--------------------------3--------|  let ring


  That's it the song isn't that hard,if you don't understand this tab
  then i would recommend that you listen to the song and try to play along ;)
Добавлено: 24.06.2012
Другие материалы по этой песне:
  • Аккорды и текст

Страница создана 24.06.2012
http://primanota.ru/gbh/chrush-em-chords.htm
Привет, Гость.
Предлагаем пройти революционный курс по гитаре.
Подарок от PrimaNota.Ru, забирай!