PrimaNota.ru - самый крупный в мире бесплатный архив песенных текстов, аккордов, табулатур и нот


Gazette - Shunsetsu No Koro - текст песни, таба, видео

Регистрация Запомнить меня
Войти через:  Facebook Google Twitter Vk Yandex Mail.ru

Gazette - Shunsetsu No Koro - текст песни, таба, видео

Печатать
Просмотров: 216
the GazettE - Shunsetsu no Koro [Time of the Spring Snow] Solo

Tuning: Whole-Step Down

D|-----14-16-18-16-18-21-18-16-14-13-14-13------------------21-18\16\14-14p13-------|
A|-/16-------------------------------------14-----------(19)------------------14----|
F|--------------------------------------------13-11-10---------------------------13-|
C|----------------------------------------------------------------------------------|
G|----------------------------------------------------------------------------------|
D|----------------------------------------------------------------------------------|

D|-----14-16-18-16-18-21-18-16-14-13-14/21-|
A|-/16-------------------------------------|
F|-----------------------------------------|
C|-----------------------------------------|
G|-----------------------------------------|
D|-----------------------------------------|

D|-15p14----------------------------------------------------------------|
A|-------15----------------------12h13p12-------------------------------|
F|----------12-14-12-12----12-14----------14-12----12h14p12----------14-|
C|----------------------14----------------------14----------14-12-14----|
G|----------------------------------------------------------------------|
D|----------------------------------------------------------------------|

D|-14-14----14-16-18-18-16-14-16-14-14-13----------------|
A|-------16-------------------------------13h15p13-------|
F|-------------------------------------------------14----|
C|----------------------------------------------------15-|
G|-------------------------------------------------------|
D|-------------------------------------------------------|

D|-14-14----14-16-18-18-16-14-16-18-18-16-18/21-21-21\18-18-|
A|-------16-------------------------------------------------|
F|----------------------------------------------------------|
C|----------------------------------------------------------|
G|----------------------------------------------------------|
D|----------------------------------------------------------|

D|-14-14----14-16-18-18-16-14-16br14----16br14--16br14--16br14---|
A|-------16--------------------------16-------16------16------16-|
F|---------------------------------------------------------------|
C|---------------------------------------------------------------|
G|---------------------------------------------------------------|
D|---------------------------------------------------------------|

D|--------------9----------14----14-16-21-18-|
A|---7-9-7-9/11---11-14-16----16-------------|
F|-8-----------------------------------------|
C|-------------------------------------------|
G|-------------------------------------------|
D|-------------------------------------------|

************************************

| /   slide up
| \   slide down
| h   hammer-on
| p   pull-off
| ~   vibrato
| +   harmonic
| x   Mute note
| b   Bend
| pb  Pre-bend
| br  Bend release
| pbr Pre-bend release
| brb Bend release bend

************************************
Добавлено: 23.06.2012
Другие материалы по этой песне:

Страница создана 20.04.2012
http://primanota.ru/gazette/shunsetsu-no-koro-chords.htm
Привет, Гость.
Предлагаем пройти революционный курс по гитаре.
Подарок от PrimaNota.Ru, забирай!