PrimaNota.ru - самый крупный в мире бесплатный архив песенных текстов, аккордов, табулатур и нот


Gazette - Naraku - текст песни, таба, видео

Регистрация Запомнить меня
Войти через:  Facebook Google Twitter Vk Yandex Mail.ru

Gazette - Naraku - текст песни, таба, видео

Печатать
Просмотров: 289
the GazettE - Naraku [Hell] 

All (2)s not (22)s

Intro
|-----------------------------------------------------------------------------|
|-----------------------------------------------------------------------------|
|---------------------------------5-5-4---------------------------------5-5-7-|(2x)
|---------------------------------3-3-2---------------------------------3-3-5-|
|-22-2-2-22-2-2-2-2-4h5-22-2-2-22-------22-2-2-22-2-2-2-2-4h5-22-2-2-22-------|
|-22-2-2-22-2-2-2-2-4h5-22-2-2-22-------22-2-2-22-2-2-2-2-4h5-22-2-2-22-------|
  ..     ..   .   .     ..     ..       ..   . ..   .   .     ..     ..


First three notes are natural harmonics on fret 2
|------------------------------------------------------------|
|------------------------------------------------------------|
|------------------------------------------------------------|
|------------------------5-5-4--------------------/x\--5-5-7-|
|------222--3*b--2--222--3-3-2--222--3*b--2--222--/x\--3-3-5-|
|-222--222-------2--222---------222-------2--222--/x\--------|
       ...       .  ...         ...       .  ... Slide up and down


barabara ni chiru...
|---------------------3---3---3-2---------------------------3---3--3-2-|
|-----7-8-7-----7-8-----5---5--------5-----7-8-7-----7-8------5---5----|
|------------------------------------4---------------------------------|(Not sure about this)
|--/5--------/5-------------------2-----/5--------/5-------------------|
|---------------------------------2------------------------------------|
|---------------------------------2------------------------------------|
                                                                       

|-----------------------------|
|-----------------------------|
|-----------------------------|
|-----------------------------|
|-2222-2222-3*b-2222-2222-3*b-|
|-2222-2222-----2222-2222-----|
  .... ....     .... ....


Chorus                                                              After second time
|------------------------------------------------------------|     |------------|
|------------------------------------------------------------|     |------------|
|--------5-5-5---------4-4-4-----------5-5-5--7-7-7----------|(2x) |-55555555-7-|
|-2-2-2--5-5-5--5-5-5--4-4-4-5--2-2-2--5-5-5--7-7-7--5-5-5-3-|     |-55555555-7-|
|-2-2-2--3-3-3--5-5-5--2-2-2-5--2-2-2--3-3-3--5-5-5--5-5-5-3-|     |-33333333-5-|
|-2-2-2---------5-5-5--------5--2-2-2----------------5-5-5-3-|     |------------|


Pre-solo
|-------------------------------------------|
|-------------------------------------------|
|-------------------------------------------|
|-------------------------------------------|
|-2--2--22--2--2----2--2--22--2--2--555-333-|
|-2--2--22--2--2----2--2--22--2--2--555-333-|
        ..                ..        ... ... 

Solo
|-------14b-14--10--12------10h12--17b-17--14-15-20-19----|
|-10/12----------------12------------------------------19-|
|---------------------------------------------------------|
|---------------------------------------------------------|
|---------------------------------------------------------|
|---------------------------------------------------------|


                                               Sustainer then use whammy octave up  
|-------14b-14--10-12----------------------20-------|
|-10/12---------------12-10-13-----------------17br-|
|------------------------------9br---16-17----------|
|---------------------------------------------------|
|---------------------------------------------------|
|---------------------------------------------------|


Post-solo
|-------------------------------|
|-------------------------------|
|-------------------------------|(4x)
|-------------------------------|
|-2-223-2-2-2322-2-223-2-2-2322-|
|-2-223-2-2-2322-2-223-2-2-2322-|
  . ... . . .... . ... . . .... 


|---------------------------------|
|---------------------------------|
|---------------------------------|
|-----------------------/x\-5-5-4-|
|------222--3*b--2--222-/x\-3-3-2-|
|-222--222-------2--222-/x\-------|
       ...       .  ...         


barabara ni chiru...
|---------------------3---3---3-2---------------------------3---3--3-2-|
|-----7-8-7-----7-8-----5---5--------5-----7-8-7-----7-8------5---5----|
|------------------------------------4---------------------------------|
|--/5--------/5-------------------2-----/5--------/5-------------------|
|---------------------------------2------------------------------------|
|---------------------------------2------------------------------------|


|-----------------------------|
|-----------------------------|
|-----------------------------|
|-----------------------------|
|-2222-2222-3*b-2222-2222-3*b-|
|-2222-2222-----2222-2222-----|
  .... ....     .... ....


Chorus                                                             
|------------------------------------------------------------|     
|------------------------------------------------------------|     
|--------5-5-5---------4-4-4-----------5-5-5--7-7-7----------|(4x) 
|-2-2-2--5-5-5--5-5-5--4-4-4-5--2-2-2--5-5-5--7-7-7--5-5-5-3-|     
|-2-2-2--3-3-3--5-5-5--2-2-2-5--2-2-2--3-3-3--5-5-5--5-5-5-3-|     
|-2-2-2---------5-5-5--------5--2-2-2----------------5-5-5-3-|     

                      naraku wo mita...
|-------------------------------------|
|-------------------------------------|
|-5--------5--------5---------5--5555-|
|-5--2--5--5--2-----5--2--5---5--5555-|
|-3--2--5--3--2-----3--2--5---3--3333-|
|----2--5-----2--------2--5-----------|
Добавлено: 23.03.2012
Другие материалы по этой песне:

Страница создана 23.03.2012
http://primanota.ru/gazette/naraku-chords.htm
Привет, Гость.
Предлагаем пройти революционный курс по гитаре.
Подарок от PrimaNota.Ru, забирай!