PrimaNota.ru - самый крупный в мире бесплатный архив песенных текстов, аккордов, табулатур и нот


Gazette - Nakigahara - текст песни, бас-таба, видео

Регистрация Запомнить меня
Войти через:  Facebook Google Twitter Vk Yandex Mail.ru

Gazette - Nakigahara - текст песни, бас-таба, видео

Печатать
Просмотров: 108
The GazettE - Nakigahara 

Tabbed by: XxThreeCheersxX
E-mail: phantomhiveghost@gmail.com

Tuning: Drop C# (C# G# C# F#), same thing as (Db Ab Db Gb)

INTRO
F#|---------------------------------------------------------54-----|
C#|---------7~--5~----------7~--5~---------4~--2~-------2-54---4~--|
G#|---------------------------------2-0-0----------2-2-------------|
C#|-2-2--45---------2-2--45----------------------------------------|

F#|----------------------------------4------------------------54-----|
C#|---------7~--5~-----------7~--5~---------4~--2~-------2-54----4~--|
G#|------------------------------------0-0----------2-2--------------|
C#|-2-2--45---------2-2--45------------------------------------------|

Verse I-A
F#|---------------------------------------------2-----|
C#|-----------------------------------------5-54--545-|
G#|---------------------------------------------------| x 2
C#|-2-2-2-2-2-2-457-2-2-2-2-2-4554-98-7(x11)----------|

Verse I-B
F#|-----------------7--------------------|
C#|------5457-5457-5-------545---5544----| (played very fast; I separated the notes
G#|-3-3-3-------------2-2-2---22-----2---|  into groups to make it easier to read)
C#|--------------------------------------|

Play the intro and verse 1 again!

Pre-Chorus
F#|-----------------------------------------|
C#|------------5-------------5--------------|
G#|-----------------------------3(x8)-2(x8)-|
C#|-2-2--2--45----2-2--2--45----------------|

-BREAK-

CHORUS (note: those are ten's and twelve's)
F#|---------------------------------------------|
C#|--------------------------------5-5-4-4-5-5--|
G#|--------10-10-12-12-12\2-0(x10)--------------|
C#|-2(x10)--------------------------------------|
                                                     (x2)
F#|-----------------------4-----2-----| 
C#|---------------------4-----4---4-5-|
G#|-3(x8)-0(x8)-2(x8)-2-----2---------|
C#|-----------------------------------|

F#|-------|
C#|-------|
G#|-------|
C#|-2~~~~-| Wait for it...

Bass solo
F#|----------0~------------------------0~--2~-------------------|
C#|----------2~------------------------2~--2~-------------------|
G#|--------------------------------------------------3~--2320---|
C#|-2-2-4572-----2-2-4572-2---2-2-4572---------2-2-45---------4-|

F#|----------0~------------------------0~--2~-------------------|
C#|----------2~------------------------2~--2~-------------------|
G#|--------------------------------------------------3~--2320---|
C#|-2-2-4572-----2-2-4572-----2-2-4572---------2-2-45---------4-|

F#|----------0~------------------------0~--2~-------------------|
C#|----------2~------------------------2~--2~-------------------|
G#|--------------------------------------------------3~--2320---|
C#|-2-2-4572-----2-2-4572-2---2-2-4572---------2-2-45---------4-|

F#|------------------------------------------------------|
C#|------------------------------------------------------|
G#|------------------------------------------------------|
C#|-2-2-4572--2---2-2-4572-----2-2-4572--2---2-2-4572--2-|

Verse 1-B (same as before)

Pre-Chorus (same as before)

Chorus (same as before)

Chorus Variation (Key change!)
F#|------------------------------------------------------------------------------|
C#|--------2-2-3-3-7-6-----------------------------------------------------------|
G#|------------------------------------------------------12-12-------------------|
C#|-0(x10)-------------5(x14)-7-7-8(x8)-5(x8)-7(x6)-7/14-------14-14-15-15-14-14-|

Just repeat that until the song fades out!

If you have any suggestions or corrections, comment or leave me an email.

I hope I did this song justice!
Добавлено: 05.05.2016
Другие материалы по этой песне:

Страница создана 15.07.2012
http://primanota.ru/gazette/nakigahara-chords.htm
Привет, Гость.
Предлагаем пройти революционный курс по гитаре.
Подарок от PrimaNota.Ru, забирай!