PrimaNota.ru - самый крупный в мире бесплатный архив песенных текстов, аккордов, табулатур и нот


Gazette - Miseinen - текст песни, бас-таба, видео

Регистрация Запомнить меня
Войти через:  Facebook Google Twitter Vk Yandex Mail.ru

Gazette - Miseinen - текст песни, бас-таба, видео

Печатать
Просмотров: 330
-----------------------------------------------------------------------------
                            MISEINEN - GazettE
-----------------------------------------------------------------------------

Tabbed by: Daniele Irto
e-mail: danieleirto6@hotmail.it



G|--------------------------------------------------------------------------|
D|---------------------------------------------------6-8-6------------------|     
A|--------4-6-4-------------4-6-7-6-----------4-6-7-------7-6-4--7-6--------|
E|-6-6-4-6-------4---6-6-4-6-----------6-6-4-6------------------------4-----|

G|--------------------------------------------------------------------------|
D|--------------------------------------------------------------------------|
A|--------4-6-4-------------4-6-7-6-----------------------------------------|
E|-6-6-4-6-------4---6-6-4-6------------------------------------------------|

Добавлено: 21.07.2012
Другие материалы по этой песне:

Страница создана 08.03.2012
http://primanota.ru/gazette/miseinen-chords.htm
Привет, Гость.
Предлагаем пройти революционный курс по гитаре.
Подарок от PrimaNota.Ru, забирай!