PrimaNota.ru - самый крупный в мире бесплатный архив песенных текстов, аккордов, табулатур и нот


Gay For Johnny Depp - She Said I Like This One - таба, видео

Регистрация Запомнить меня
Войти через:  Facebook Google Twitter Vk Yandex Mail.ru

Gay For Johnny Depp - She Said I Like This One - таба, видео

Печатать
Просмотров: 88
Song: She Said "I Like This One"
Artist: Gay for Johnny Depp
Album: Erotically Charged Dance Songs for the Desperate

x = Palm Mute
/ = Slide




Intro:

E|-------------------------------------------------------------------|E
B|-------------------------------------------------------------------|B
D|-------------------------------------------------------------------|D
G|-------------------------------------------------------------------|G
A|--5-5-5-5-5-5-5-5-5-5-5-5-5-5-5--9-9-9-9-9-9-9-9-9-9-9-9-9-9-9-9---|A
E|--x-x-x-x-x-x-x-x-x-x-x-x-x-x-x--x-x-x-x-x-x-x-x-x-x-x-x-x-x-x-x---|E

E|-------------------------------------------------------------------------|E
B|-------------------------------------------------------------------------|B
D|-------------------------------------------------------------------------|D
G|-------------------------------------------------------------------------|G
A|--5-5-5-5-5-5-5-5-5-5-5-5-5-5-5--9-9-9-9-9-9-9-9-9-9-9-9-9-9-9-9----9/5--|A
E|--x-x-x-x-x-x-x-x-x-x-x-x-x-x-x--x-x-x-x-x-x-x-x-x-x-x-x-x-x-x-x---------|E

E|------------------------------------------------------------------------|E
B|------------------------------------------------------------------------|B
D|------------------------------------------------------------------------|D
G|----------7---------7-------7------------11---------11-------11---------|G  X2
A|--5-5-5-5-5-5-5-5-5-5-5-5-5-5-5--9-9-9-9-9--9-9-9-9-9--9-9-9-9--9-9-----|A
E|--x-x-x-x---x-x-x-x---x-x-x---x--x-x-x-x----x-x-x-x----x-x-x----x-x-----|E









Verse:

E|------------------------------------------------------------------------|E
B|------------------------------------------------------------------------|B
D|------------------------------------------------------------------------|D
G|----------7---------7-------7------------11---------11-------11---------|G  X4
A|--5-5-5-5-5-5-5-5-5-5-5-5-5-5-5--9-9-9-9-9--9-9-9-9-9--9-9-9-9--9-9-----|A
E|--x-x-x-x---x-x-x-x---x-x-x---x--x-x-x-x----x-x-x-x----x-x-x----x-x-----|E

    Freedom is...
E|-----------------------------------------------------------------------|E
B|-----------------------------------------------------------------------|B
D|-----------------------------------------------------------------------|D
G|--------------14-------------14------------------18-------18----18-18--|G
A|--12-12-12-12-12-12-12-12-12-12-12---16-16-16-16-16-16-16-16-16-16-16--|A
E|--x--x--x--x-----x--x--x--x-----x----x--x--x---x----x--x-----x---------|E










Chorus:


E|--------------------------------------------------------------------|E
B|--------------------------------------------------------------------|B
D|--14--14--14---14--14--14---18--18--18--18--18--18--18--18--18--18--|D
G|--12--12--12---12--12--12---16--16--16--16--16--16--16--16--16--16--|G
A|--------------------------------------------------------------------|A
E|--------------------------------------------------------------------|E


Outro:


E|---------------------------|E
B|---------------------------|B
D|--7-7-7--/7-7-7---/7-7-7---|D
G|--7-7-7--/7-7-7---/7-7-7---|G
A|--5-5-5--/5-5-5---/5-5-5---|A
E|---------------------------|E



Song order:

Intro 
Verse
Chorus
Verse
Chorus x2
Outro

www.gayforjohnnydepp.com
Добавлено: 31.05.2012
Другие материалы по этой песне:

Страница создана 07.04.2012
http://primanota.ru/gay-for-johnny-depp/she-said-i-like-this-one-chords.htm
Привет, Гость.
Предлагаем пройти революционный курс по гитаре.
Подарок от PrimaNota.Ru, забирай!