PrimaNota.ru - самый крупный в мире бесплатный архив песенных текстов, аккордов, табулатур и нот


Gavin Degraw - I Dont Wanna Be - текст песни, таба, видео

Регистрация Запомнить меня
Войти через:  Facebook Google Twitter Vk Yandex Mail.ru

Gavin Degraw - I Dont Wanna Be - текст песни, таба, видео

Печатать
Просмотров: 205
Title: I Don't Wanna Be

Artist: Gavin DeGraw

Album: Chariot

 

Instrument: 6 String Guitar

 

Tabbed by: John Deal (foofighta@zworg.com)

 

Tuning: Standard (E A D G B E)

 

Awesome song, i couldn't find the album version so this is the live
version

 

intro/verses

guitar-1/2

E|-------------------------------------------------------------------||

B|-------------------------------------------------------------------||

G|-2h4-2h4-2h4-2h4---------------------------------------------------||

D|-2h4-2h4-2h4-2h4-------2h4-----------------------------------------||

A|-------------------2h4---------------------------------------------||

E|-------------------------------------------------------------------||

x4 and on the 4th do this below

 

E|-------------------------------------------------------------------||

B|----4b-------------------------------------------------------------||

G|----4b-------------------------------------------------------------||

D|-------------------------------------------------------------------||

A|-------------------------------------------------------------------||

E|-------------------------------------------------------------------||

 

thats the intro but during the verse basically just palm mute it

 

chorus - ok you can play the chorus 2 different ways, he has 2 guitars
playing the song live i'll do both parts, you can do either one but i
suggest guitar 1 for acoustics

 

guitar 1 listen to the song for rythm - guitar 2 has the correct ammount
of blocks

E|-3---0---x---------------------------------------------------------||

B|-3---3---2---------------------------------------------------------||

G|-0---2---2---4--3--2-----------------------------------------------||

D|-0---0---2---4--3--2-----------------------------------------------||

A|-2---x---0---2--1--0-----------------------------------------------||

E|-3---x---x---------------------------------------------------------||

 

guitar 2

E|-------------------------------------------------------------------||

B|-------------------------------------------------------------------||

G|-------------------------------------------------------------------||

D|-5-5--x-x--12-12--x-x--7-7--x-x-x-x-x--9-9\8-8\7-------------------||

A|-5-5--x-x--12-12--x-x--7-7--x-x-x-x-x--9-9\8-8\7-------------------||

E|-3-3--x-x--10-10--x-x--5-5--x-x-x-x-x--7-7\6-6\5-------------------||

 

that's it, i suggest checking out Gavin DeGraw, he's a great songwriter.

     
Добавлено: 18.09.2013
Другие материалы по этой песне:

Страница создана 19.04.2012
http://primanota.ru/gavin-degraw/i-dont-wanna-be-chords.htm
Привет, Гость.
Предлагаем пройти революционный курс по гитаре.
Подарок от PrimaNota.Ru, забирай!