PrimaNota.ru - самый крупный в мире бесплатный архив песенных текстов, аккордов, табулатур и нот


Gatsbys American Dream - Station 5 The Pearl - текст песни, таба, видео

Регистрация Запомнить меня
Войти через:  Facebook Google Twitter Vk Yandex Mail.ru

Gatsbys American Dream - Station 5 The Pearl - текст песни, таба, видео

Печатать
Просмотров: 136
STATION 5: THE PEARL
tabbed by mikehasnolife

\ slide
~ ring out

  INTRO/CHORUS
e----------------------------------------------------|
B--88888888------------------------------------------|
G--99999999-88888888-1111111111111111-66666666-------|
D--99999999-99999999-1212121212121212-55555555-------|  x2
A--77777777-99999999-1212121212121212-77777777-------|
E-----------77777777-1010101010101010-55555555-------|


  VERSE
e----------------------------------|
B----------------------------------|
G----------------------------------|
D--------------------------1-------|
A---------2-6\\----------2---2-2---|
E--0-3\\---------0-3\\-------0-0---|

e---------------------------------|
B---------------------------------|
G---------------------------------|
D---------------------------------|
A--5-5--7-7--7\8-8--9-9-----------|
E--3-3--5-5--5\6-6--7-7-----------|

e---------------------------------|
B---------------------------------|
G-------------------------5~------|
D--5555555555555555----7~---------|
A--3333333333333333-6~------------|
E---------------------------------|
 PM................


  POST-2ND CHORUS
e-------------------------------------------------------|
B-------------------------------------------------------|
G--------5~-------------------12~--\\14~----------------|
D-----5~----------5~-----(11)------------13~------------|
A--7~----------5~-----12---------------------14~--------|
E-----------7~------------------------------------------|
(the 11's in parenthesis because i'm not sure
if he actually plays it or not. if so, it's very quick.)


  BREAKDOWN?
e-----------------------------------|
B-----------------------------------|
G--99-999-988-888--99-999-988-888---|
D--99-999-999-999--99-999-999-999---|
A-----------------------------------|
E-----------------------------------|

e-------------------------------------------|
B-------------------------------------------|
G--99-999-91212-12-12-1255-555-599-988------|
D--99-999-91212-12-12-1277-777-799-999------|
A-------------------------------------------|
E-------------------------------------------|

  POST-BREAKDOWN
e--------------------------------------------------|
B--------------------------------------------------|
G---------------5~-----5-----5-----5-----5-----5---|
D------------7~------7-----7-----7-----7-----7-----|
A--3~~~---6~-------6-----6-----6-----6-----6-------|
E--------------------------------------------------|


  OUTRO
e-----------------------------------------------------|
B-----------------------------------------------------|
G-----------------------5-----5-----5-----5---555-----|
D--5555555555555555---7-----7-----7-----7-----777-----|
A--3333333333333333-6-----6-----6-----6-----6-666-----|
E-----------------------------------------------------|
Добавлено: 10.05.2012
Другие материалы по этой песне:
  • Аккорды и текст

Страница создана 29.02.2012
http://primanota.ru/gatsbys-american-dream/station-5-the-pearl-chords.htm
Привет, Гость.
Предлагаем пройти революционный курс по гитаре.
Подарок от PrimaNota.Ru, забирай!