PrimaNota.ru - самый крупный в мире бесплатный архив песенных текстов, аккордов, табулатур и нот


Gathering - Debris - текст песни, бас-таба, видео

Регистрация Запомнить меня
Войти через:  Facebook Google Twitter Vk Yandex Mail.ru

Gathering - Debris - текст песни, бас-таба, видео

Печатать
Просмотров: 125
Band: The Gathering
Song: Debris
Tuning: Standard
Tabbed By: amaranth_todd



Fig. 1

  Q  Q  E Q  E   Q  E Q  E Q    Q  Q  E Q  E   Q  E Q  E Q
|--------------|--------------|--------------|---------------|
|--------------|--------------|--------------|---------------|
|-3--6--3-5--3-|-6--3-5--3-6--|-3--6--3-5--3-|-6--3-5--3-6---|
|--------------|--------------|--------------|---------------|


Fig. 2

  Q  Q  E Q  E   Q  E Q  E Q    Rest x 2 bars
|--------------|--------------|--------------|
|--------------|--------------|--------------|
|-3--6--3-5--3-|-6--3-5--3-6--|--------------|
|--------------|--------------|--------------|


Fig. 3

  Q  Q  Q  Q    Q  Q  Q  Q      Q   Q   Q   Q     Q   Q   Q   Q
|-------------|-------------|------------------|-----------------|
|-------------|-------------|------------------|-----------------|
|-------------|-------------|-/10--10--10--10--|-10--10--10--10--|
|-4--4--4--4--|-4--4--4--4--|------------------|-----------------|


  Q  Q  E Q  E   Q  E Q  E Q
|--------------|--------------|
|--------------|--------------|
|-3--6--3-5--3-|-6--3-5--3-6--|
|--------------|--------------|


  Q  Q  Q  Q    Q  Q  Q  Q      Q   Q   Q   Q     Q   Q   Q   Q
|-------------|-------------|------------------|-----------------|
|-------------|-------------|------------------|-----------------|
|-------------|-------------|-/10--10--10--10--|-10--10--10--10--|
|-4--4--4--4--|-4--4--4--4--|------------------|-----------------|


Fig. 4

  E E E E E E E E   E E E E E E E E   E  E  E  E  E  E  E  E    E  E  E  E  E  E  E  E
|-----------------|-----------------|------------------------|-------------------------|
|-----------------|-----------------|------------------------|-------------------------|
|-----------------|-----------------|---10-10-10-10-10-10-10-|-10-10-10-10-10-10-10-10-|
|-8-8-8-8-8-8-8-8-|-8-8-8-8-8-8-8-8-|-8----------------------|-------------------------|


  E E E E E E E E   E E E E E E E E   E  E  E  E  E  E  E  E    E  E  E  E  E  E  E  E
|-----------------|-----------------|------------------------|-------------------------|
|-----------------|-----------------|------------------------|-------------------------|
|-----------------|-----------------|---10-10-10-10-10-10-10-|-10-10-10-10-10-10-10-10-|
|-8-8-8-8-8-8-8-8-|-8-8-8-8-8-8-8-8-|-8----------------------|-------------------------|


  E E E E E E E E   E E E E E E E E   E  E  E  E  E  E  E  E    E  E  E  E  E  E  E  E
|-----------------|-----------------|------------------------|-------------------------|
|-----------------|-----------------|------------------------|-------------------------|
|-----------------|-----------------|---10-10-10-10-10-10-10-|-10-10-10-10-10-10-10-10-|
|-4-4-4-4-4-4-4-4-|-4-4-4-4-4-4-4-4-|-4----------------------|-------------------------|


End

  E E E E E E E E   E E E E E E E E 
|-----------------|-----------------*|
|-----------------|-----------------*|
|-----------------|-----------------*|
|-8-8-8-8-8-8-8-8-|-8-8-8-8-8-8-8-8-*|


*rest 22 bars*
Fig. 1
*rest 2 bars*
Fig. 2 x3
Fig. 3
Fig. 4 x2
*rest 4 bars*
Fig. 2 x12
Fig. 3
*rest 8 bars*
Fig. 4 x3
End

Please rate and comment!

--------------------------------------------------------------------------------


Duration Legend
---------------
W - whole; H - half; Q - quarter; E - 8th; S - 16th; T - 32nd; X - 64th; a - acciaccatura
+ - note tied to previous; . - note dotted; .. - note double dotted
Uncapitalized letters represent notes that are staccato (1/2 duration)
Irregular groupings are notated above the duration line
Duration letters will always appear directly above the note/fret number it represents the
duration for.  Duration letters with no fret number below them represent rests.  Multi-
bar rests are notated in the form Wxn, where n is the number of bars to rest for.  Low
melody durations appear below the staff

Добавлено: 27.06.2012
Другие материалы по этой песне:
  • Аккорды и текст

Страница создана 17.06.2012
http://primanota.ru/gathering/debris-chords.htm
Привет, Гость.
Предлагаем пройти революционный курс по гитаре.
Подарок от PrimaNota.Ru, забирай!