PrimaNota.ru - самый крупный в мире бесплатный архив песенных текстов, аккордов, табулатур и нот


Gatans Lag - Fran Fest Till Arrest - таба, видео

Регистрация Запомнить меня
Войти через:  Facebook Google Twitter Vk Yandex Mail.ru

Gatans Lag - Fran Fest Till Arrest - таба, видео

Печатать
Просмотров: 76
Уроки эстрадного вокала в Санкт-Петербурге
Fran fest till arrest By: Gatans Lag

Intro/Verse:
   F#                              D
E|-----------------------------------------------------------------|
B|-----------------------------------------------------------------|
G|---------------------------------2-2-2-2-2-2-2-2-2-2-2-2-2-2-2-2-|
D|---------------------------------0-0-0-0-0-0-0-0-0-0-0-0-0-0-0-0-|
A|-4-4-4-4-4-4-4-4-4-4-4-4-4-4-4-4---------------------------------|
E|-2-2-2-2-2-2-2-2-2-2-2-2-2-2-2-2---------------------------------|
   . . . . . . . . . . . . . . . . . . . . . . . . . . . . . . . .

   A                               E
E|-----------------------------------------------------------------|
B|-----------------------------------------------------------------|
G|---------------------------------4-4-4-4-4-4-4-4-4-4-4-4-4-4-4-4-|
D|-2-2-2-2-2-2-2-2-2-2-2-2-2-2-2-2-2-2-2-2-2-2-2-2-2-2-2-2-2-2-2-2-|
A|-0-0-0-0-0-0-0-0-0-0-0-0-0-0-0-0---------------------------------|
E|-----------------------------------------------------------------|
   . . . . . . . . . . . . . . . . . . . . . . . . . . . . . . . .

Lead:

E|-------------------------------------------------------|
B|--------/7--7----7--5----------------------------------|
G|-----------------------7--7----7--6----6--6--4-----4---|
D|----4-------------------------------------------7------|
A|-------------------------------------------------------|
E|-------------------------------------------------------|

E|--------------------------------------------------------|
B|---------7--7----7--5----------------------5--5--7--5---|
G|-----------------------7--7----7--6----6h7--------------|
D|----4---------------------------------------------------|
A|--------------------------------------------------------|
E|--------------------------------------------------------|

Pre chorus:
    B                       E
E|--------------------------------------------------|
B|--------------------------------------------------|
G|--------------------------4--4--4--4--4--4--4--4--|
D|--4--4--4--4--4--4--4--4--2--2--2--2--2--2--2--2--|
A|--2--2--2--2--2--2--2--2--------------------------|
E|--------------------------------------------------|


E|------------------------------------------------|
B|------------------------------------------------|
G|------------------------------------------------|
D|--2--2--2--2--2--2--2--2--7--7--7--7----7----6--|
A|--0--0--0--0--0--0--0--0--5--5--5--5----5----4--|
E|------------------------------------------------|

    B                       E
E|-----------------------------|
B|-----------------------------|
G|--------------------------4--|
D|--4--4--4--4--4--4--4--4--2--|
A|--2--2--2--2--2--2--2--2-----|
E|-----------------------------|

Chorus:
   A                               E
E|-----------------------------------------------------------------|
B|-----------------------------------------------------------------|
G|---------------------------------4-4-4-4-4-4-4-4-4-4-4-4-4-4-4-4-|
D|-2-2-2-2-2-2-2-2-2-2-2-2-2-2-2-2-2-2-2-2-2-2-2-2-2-2-2-2-2-2-2-2-|
A|-0-0-0-0-0-0-0-0-0-0-0-0-0-0-0-0---------------------------------|
E|-----------------------------------------------------------------|
   . . . . . . . . . . . . . . . . . . . . . . . . . . . . . . . .

   B                               D
E|-----------------------------------------------------------------|
B|-----------------------------------------------------------------|
G|---------------------------------2-2-2-2-2-2-2-2-2-2-2-2-2-2-2-2-|
D|-4-4-4-4-4-4-4-4-4-4-4-4-4-4-4-4-0-0-0-0-0-0-0-0-0-0-0-0-0-0-0-0-|
A|-2-2-2-2-2-2-2-2-2-2-2-2-2-2-2-2---------------------------------|
E|-----------------------------------------------------------------|
   . . . . . . . . . . . . . . . . . . . . . . . . . . . . . . . .

Lead:


E|----5----9--9--5--7----5--7----7b8----5-----5----|
B|-----------------------------------------7-------|
G|-------------------------------------------------|
D|-------------------------------------------------|
A|-------------------------------------------------|
E|-------------------------------------------------|


by:themechanix100
Добавлено: 04.08.2013
Вам также может быть интересно:
Другие материалы по этой песне:
  • Аккорды и текст

Страница создана 04.08.2013
http://primanota.ru/gatans-lag/fran-fest-till-arrest-chords.htm
Привет, Гость.
Предлагаем пройти революционный курс по гитаре.
Подарок от PrimaNota.Ru, забирай!