PrimaNota.ru - самый крупный в мире бесплатный архив песенных текстов, аккордов, табулатур и нот


The Gaslamp Killer - Nissim - бас-таба, видео

Регистрация Запомнить меня
Войти через:  Facebook Google Twitter Vk Yandex Mail.ru

The Gaslamp Killer - Nissim - бас-таба, видео

Печатать
Просмотров: 61
Tabbed by: 6METAL6BASSIST6
E-mail: petergriffinav@gmail.com

Tuning: EADG

1:44 It's repeated until it fades out.

G|----------------------------------------------------------------|.
D|----------------------------------------------------------------|.
A|----------------10--------------6-------------------------------|.
E|8-----------------------------------------------6---------------|.
                                                                   .
G|----------------------------------------------------------------|.
D|----------------------------------------------------------------|.
A|----------------10--------------6-------------------------------|.
E|8-----------------------------------------------6---------------|.
                                                                   . x2
G|----------------------------------------------------------------|.
D|----------------------------------------------------------------|.
A|--------------------------------6-------------------------------|.
E|8---------------6-------------------------------6---------------|.
                                                                   .
G|----------------------------------------------------------------|.
D|----------------------------------------------------------------|.
A|--------------------------------6-------------------------------|.
E|8---------------6-------------------------------6---------------|.

2:07

G|---------------------------------------------------------------|
D|----------------10------------------------------10-------------| x2
A|------------10----------10------------------10---------10------|
E|8-------------------------------8------------------------------|

G|---------------------------------------------------------------|
D|---------------------------------------------------------------| x2
A|6--------------------------------------------------------------|
E|----------------6---------------8---------------6--------------|

2:20

G|----------------------------------------------------------------|.
D|----------------------------------------------------------------|.
A|----------------10--------------6-------------------------------|.
E|8-----------------------------------------------6---------------|.
                                                                   .
G|----------------------------------------------------------------|.
D|----------------------------------------------------------------|.
A|----------------10--------------6-------------------------------|.
E|8-----------------------------------------------6---------------|.
                                                                   . x2
G|----------------------------------------------------------------|.
D|----------------------------------------------------------------|.
A|--------------------------------6-------------------------------|.
E|8---------------6-------------------------------6---------------|.
                                                                   .
G|----------------------------------------------------------------|.
D|----------------------------------------------------------------|.
A|--------------------------------6-------------------------------|.
E|8---------------6-------------------------------6---------------|.

2:42

G|------------8-------8-----------------------8-------8-----------|
D|----------------------------8-------------------------------8---|
A|6-------------------------------6-------------------------------|
E|----------------------------------------------------------------|

G|------------8-------8-----------------------8-------8-----------|
D|----------------------------8-----------------------------------|
A|6-------------------------------6-------------------------------|
E|----------------------------------------------------------------|

G|----------------------------------------------------------------|
D|----------------------------------------------------------------|
A|8-------------------------------6-------------------------------|
E|----------------6-------------------------------6---------------|

G|--------------------------------------------8-------8-----------|
D|------------------------------------------------------------8---|
A|8-------------------------------6-------------------------------|
E|----------------6-----------------------------------------------|

G|------------8-------8-----------------------8-------8-----------|
D|----------------------------8-------------------------------8---|
A|6-------------------------------6-------------------------------|
E|----------------------------------------------------------------|

G|------------8-------8-------------------------------------------|
D|----------------------------------------------------------------|
A|6-------------------------------8-------------------------------|
E|------------------------------------------------6---------------|

G|----------------------------------------------------------------|
D|----------------------------------------------------------------|
A|6-------------------------------8-------------------------------|
E|----------------6-------------------------------6---------------|
Добавлено: 29.12.2015
Другие материалы по этой песне:
  • Аккорды и текст

Страница создана 29.12.2015
http://primanota.ru/gaslamp-killer/nissim-chords.htm
Привет, Гость.
Предлагаем пройти революционный курс по гитаре.
Подарок от PrimaNota.Ru, забирай!