PrimaNota.ru - самый крупный в мире бесплатный архив песенных текстов, аккордов, табулатур и нот


Gash - Bucket Of Dumb - бас-таба, видео

Регистрация Запомнить меня
Войти через:  Facebook Google Twitter Vk Yandex Mail.ru

Gash - Bucket Of Dumb - бас-таба, видео

Печатать
Просмотров: 72
Intro

G----------------------------------------
D------------4---------------------4-----
A4----5-----------5--5--4-4-5------------
E----------------------------------------

Verse

G----------------------------------------
D----------------------------------------
A----------------------------------------
E----------------------------------------

Chorus

G----------------------------------------
D------------4----------------------4----
A4----5-----------5--5--4----5-----------
E----------------------------------------

Outro

G---------------------------------------- Fade Out
D------------4---------------------4-----
A4----5-----------5--5--4-4-5------------
E----------------------------------------

Intro x2 (x6)
Chorus x2
Intro x2 / Verse x 2
Chorus x5
Outro x1

_________________________________________________________________
     
Добавлено: 21.10.2013
Вам также может быть интересно:
Другие материалы по этой песне:
  • Аккорды и текст

Страница создана 21.10.2013
http://primanota.ru/gash/bucket-of-dumb-chords.htm
Привет, Гость.
Предлагаем пройти революционный курс по гитаре.
Подарок от PrimaNota.Ru, забирай!