PrimaNota.ru - самый крупный в мире бесплатный архив песенных текстов, аккордов, табулатур и нот


Gary Numan - This Is My House - текст песни, бас-таба, видео

Регистрация Запомнить меня
Войти через:  Facebook Google Twitter Vk Yandex Mail.ru

Gary Numan - This Is My House - текст песни, бас-таба, видео

Печатать
Просмотров: 321
Уроки эстрадного вокала в Санкт-Петербурге
A midi file can be found here:
http://dl.dropbox.com/u/8715357/This%20Is%20My%20House%20Bass.mid 
and here: 
http://dl.dropbox.com/u/8715357/This%20is%20My%20House%20Synth.MID

Have fun playing this great song!


Pre Verse:
G|------4-2-----4-|--------|
D|----------------|-4-4----|
A|-2-2------------|------2-|
E|----------------|--------|

G|------4-2-----4-|--------|
D|----------------|-4-4----|
A|-2-2------------|------2-|
E|----------------|--------|

Verse 1 :

        I read  a book   About
G|------4-2-----4-|--------|
D|----------------|-4-4----|
A|-2-2------------|------2-|
E|----------------|--------|

     Conversation and you
G|------4-2-----4-|--------|
D|----------------|-4-4----|
A|-2-2------------|------2-|
E|----------------|--------|

        I listen to stories that  
G|------4--2------4-|--------|
D|------------------|-4-4----|
A|-2-2--------------|------2-|
E|------------------|--------|

   Intrude on my heart again...
G|------4--2------4-|--------|
D|------------------|-4-4----|
A|-2-2--------------|------2-|
E|------------------|--------|



Chorus Part 1:

            "Oh Oh Oh           This Is My House..."
G|--------------------|-------------------------|
D|--------------------|-------------------------|
A|-----2-3---5--6--7--|-----2-3-----------------|
E|-0-0-----0----------|-0-0-----5-----3-----5---|

            "Oh Oh Oh           Welcome Is Here..."
G|--------------------|-------------------------|
D|--------------------|-------------------------|
A|-----2-3---5--6--7--|-----2-3-----------------|
E|-0-0-----0----------|-0-0-----5-----3-----5---|

            "Oh Oh Oh           This Is My House..."
G|--------------------|-------------------------|
D|--------------------|-------------------------|
A|-----2-3---5--6--7--|-----2-3-----------------|
E|-0-0-----0----------|-0-0-----5-----3-----5---|

            "Oh Oh Oh          Welcome to  Me..."
G|--------------------|-------------------------|
D|--------------------|-------------------------|
A|-----2-3---5--6--7--|-----2-3-----------------|
E|-0-0-----0----------|-0-0-----5-----3-----2---|


Chorus Part 2:

    " Do Do Do  Do Do Do Do Do Do Whoa oh oh!   
G|-------------------------------|--------------|
D|-----3--3--1--0----------------|--------------|
A|-----------------3--1--2-------|--------------|
E|-1-1----------------------3--3-|--------------|

    " Do Do Do  Do Do Do Do Do Do Whoa oh oh!   
G|-------------------------------|--------------|
D|-----3--3--1--0----------------|--------------|
A|-----------------3--1--2-------|--------------|
E|-1-1----------------------3--3-|--------------|


Bridge:
                   Whoa oh oh oh oh!
G|------4-2-----4-|--------|
D|----------------|-4-4----|
A|-2-2------------|------2-|
E|----------------|--------|

                   Whoa oh oh oh oh!
G|------4-2-----4-|--------|
D|----------------|-4-4----|
A|-2-2------------|------2-|
E|----------------|--------|

Bridge Keyboards:

Arranged for guitar:

                     Whoa oh oh oh oh!
E|------------------|----------------|
B|------------------|----------------|
G|--4--2--4---------|-2---4----------|
D|----------4-------|--------4-------|
A|------------------|------------6---|
E|------------------|--------------7-|

                     Whoa oh oh oh oh!
E|------------------|----------------|
B|------------------|----------------|
G|--4--2--4---------|-2---4----------|
D|----------4-------|--------4-------|
A|------------------|------------6---|
E|------------------|--------------7-|

For Keyboards: 

   B   A  B F#       A   B  F#  D# B



Verse 2:


        My Picture of...Your Face will
G|------4--2-------4-|--------|
D|-------------------|-4-4----|
A|-2-2---------------|------2-|
E|-------------------|--------|

        Dissapear with time
G|------4-2-----4-|--------|
D|----------------|-4-4----|
A|-2-2------------|------2-|
E|----------------|--------|

       Patients In Eyes     That
G|------4-------2--4-|--------|
D|-------------------|-4-4----|
A|-2-2---------------|------2-|
E|-------------------|--------|

        Say occupied...Quite Peculiar
G|------4--2------4-|--------|
D|------------------|-4-4----|
A|-2-2--------------|------2-|
E|------------------|--------|

Chorus Part 1:

            "Oh Oh Oh           This Is My House..."
G|--------------------|-------------------------|
D|--------------------|-------------------------|
A|-----2-3---5--6--7--|-----2-3-----------------|
E|-0-0-----0----------|-0-0-----5-----3-----5---|

            "Oh Oh Oh           Welcome Is Here..."
G|--------------------|-------------------------|
D|--------------------|-------------------------|
A|-----2-3---5--6--7--|-----2-3-----------------|
E|-0-0-----0----------|-0-0-----5-----3-----5---|

            "Oh Oh Oh           This Is My House..."
G|--------------------|-------------------------|
D|--------------------|-------------------------|
A|-----2-3---5--6--7--|-----2-3-----------------|
E|-0-0-----0----------|-0-0-----5-----3-----5---|

            "Oh Oh Oh          Welcome to  Me..."
G|--------------------|-------------------------|
D|--------------------|-------------------------|
A|-----2-3---5--6--7--|-----2-3-----------------|
E|-0-0-----0----------|-0-0-----5-----3-----2---|

Chorus Part 2:


    " Do Do Do  Do Do Do Do Do Do Whoa oh oh!   
G|-------------------------------|--------------|
D|-----3--3--1--0----------------|--------------|
A|-----------------3--1--2-------|--------------|
E|-1-1----------------------3--3-|--------------|

    " Do Do Do  Do Do Do Do Do Do Whoa oh oh!   
G|-------------------------------|--------------|
D|-----3--3--1--0----------------|--------------|
A|-----------------3--1--2-------|--------------|
E|-1-1----------------------3--3-|--------------|


Bridge Repeat till Fadeout:

                   Whoa oh oh oh oh!
G|------4-2-----4-|--------|
D|----------------|-4-4----|
A|-2-2------------|------2-|
E|----------------|--------|

                   Whoa oh oh oh oh!
G|------4-2-----4-|--------|
D|----------------|-4-4----|
A|-2-2------------|------2-|
E|----------------|--------|

Bridge Keyboards:

Arranged for guitar:

                     Whoa oh oh oh oh!
E|------------------|----------------|
B|------------------|----------------|
G|--4--2--4---------|-2---4----------|
D|----------4-------|--------4-------|
A|------------------|------------6---|
E|------------------|--------------7-|

                     Whoa oh oh oh oh!
E|------------------|----------------|
B|------------------|----------------|
G|--4--2--4---------|-2---4----------|
D|----------4-------|--------4-------|
A|------------------|------------6---|
E|------------------|--------------7-|

For Keyboards: 

   B   A  B F#       A   B  F#  D# B
REPEAT TILL FADEOUT.
Добавлено: 22.05.2012
Другие материалы по этой песне:
  • Аккорды и текст

Страница создана 20.03.2012
http://primanota.ru/gary-numan/this-is-my-house-chords.htm
Привет, Гость.
Предлагаем пройти революционный курс по гитаре.
Подарок от PrimaNota.Ru, забирай!