PrimaNota.ru - самый крупный в мире бесплатный архив песенных текстов, аккордов, табулатур и нот


Gary Numan - Pressure - текст песни, бас-таба, видео

Регистрация Запомнить меня
Войти через:  Facebook Google Twitter Vk Yandex Mail.ru

Gary Numan - Pressure - текст песни, бас-таба, видео

Печатать
Просмотров: 87
			     Pressure - Gary Numan
-------------------------------------------------------------------------------

As there are so few Gary Numan Tabs out there i've decided to post what
I have transcribed by ear, look out for more coming soon. Comments welcome.

Tabbed By : soiprayed
e-mail:

Tuning: Standard

The Intro has no bass, just sweeping synths,

The verses are so easy, you can play with one hand-

G|-----------------------------------------------------------------------------|
D|-0-----(let ring)------------------------------------------------------------|
A|-----------------------------------------------------------------------------|
E|-----------------------------------------------------------------------------|

yes, thats all it does, add lots of reverb and just listen for
the timing, it happens pretty much just before each line is sung.

The chorus riff, (just listen to get the timing)

G|---------------------------------------------------------------------------|
D|--3-00--0-3-5-3-00--0-3-5-3-00--0-3-5/6\5-3-0------------------------------|
A|---------------------------------------------------------------------------|
E|---------------------------------------------------------------------------|

Add some fuzz distortion for this part, you can also play it like this
entirely in 1st position but i think the first sounds better if you slide
between the notes and you can use a bass synth pedal to fatten the sound.

G|------------0-----------0-----------0-1-0----------------------------------|
D|--3-00--0-3---3-00--0-3---3-00--0-3-------3-0------------------------------|
A|---------------------------------------------------------------------------|
E|---------------------------------------------------------------------------|

there is also a nice interlude i've tabbed for the bass- a good time to
practice your violining skills*
(*using your volume control or volume pedal to make it sound like a violin-
turn the volume all the way down, pick the note then blend the volume up
slowly)

G|--12-11-------------14-11--------------------------------------------------|
D|--------13-12--------------------------------------------------------------|
A|--------------12-15--------------------------------------------------------|
E|---------------------------------------------------------------------------|

It repeats a few times before the chorus riff kicks back in.


Well I hope this is all ok, best of luck, hail Numan!

Regards

| /  slide up
| \  slide down
| h  hammer-on
| p  pull-off
| ~  vibrato
| +  harmonic
| x  Mute note
===============================================================================
Добавлено: 23.02.2012
Другие материалы по этой песне:
  • Аккорды и текст

Страница создана 23.02.2012
http://primanota.ru/gary-numan/pressure-chords.htm
Привет, Гость.
Предлагаем пройти революционный курс по гитаре.
Подарок от PrimaNota.Ru, забирай!