PrimaNota.ru - самый крупный в мире бесплатный архив песенных текстов, аккордов, табулатур и нот


Gary Moore - Power Of The Blues - таба, видео

Регистрация Запомнить меня
Войти через:  Facebook Google Twitter Vk Yandex Mail.ru

Gary Moore - Power Of The Blues - таба, видео

Печатать
Просмотров: 281
Power of the Blues by Gary Moore

Record: Power of the Blues
Year: 2004
Genre: Bluesrock

Notation legend:

~ means vibrato
~~ means to do a very strong vibrato
/ means to slide the bass string down to the next note

-----------------

Intro:
e: |---------------------------------------------------------|
B: |-----8-8-8-8-8-8-8-8-------------------------------------|
G: |-----7-7-7-7-7-7-7-7-------------------------------------|
D: |-----6-6-6-6-6-6-6-6-------------------------------------|
A: |-----7-7-7-7-7-7-7-7-------------------------------------|
E: |-----0-0-0-0-0-0-0-0-------------------------------------|

Verse:
e: |----------------------------------------------------------------|
B: |----------------------------------------------------------------|
G: |----------------------------------------------------------------|
D: |----------------------------------------------------------------|
A: |-----------3~---------------3~---------------3~--------------3~-|
E: |--/5-5-5-5----5-3---5-5-5-5----5-3---5-5-5-5----5-3---5-5-5-5---|

e: |----------------------------------------------------------------|
B: |----------------------------------------------------------------|
G: |----------------------------------------------------------------|
D: |--------------3~----------------3~------------------------------|
A: |--0-3-5-5-5-5----5-3---5-5-5-5----5-3---------3~----------------|
E: |--------------------------------------5-5-5-5----5-3------------|

e: |----------------------------------------------------------------|
B: |-------------------------8-8--------6-6--------8-8--8-----------|
G: |-------------------------7-7--------5-5--------7-7--7-----------|
D: |-------------------------6-6--0-0-0-4-4--------6-6--6-----------|
A: |----------3~-------------7-7--------5-5--------7-7--7-----------|
E: |--5-5-5-5----5-3---0-0-0-0-0-------------0-0-0-0-0--0-----------|

e: |----------------------------------------------------------------|
B: |----------------------------------------------------------------|
G: |----------------------------------------------------------------|
D: |----------------------------------------------------------------|
A: |-----------3~---------------3~---------------3~-----------------|
E: |--/5-5-5-5----5-3---5-5-5-5----5-3---5-5-5-5----5-5-5-3-5-------|

e: |----------------------------------------------------------------|
B: |----------------------------------------------------------------|
G: |----------------------------------------------------------------|
D: |----------------------------------------------------------------|
A: |-----------3~---------------3~---------------3~--------------3~-|
E: |--/5-5-5-5----5-3---5-5-5-5----5-3---5-5-5-5----5-3---5-5-5-5---|

e: |----------------------------------------------------------------|
B: |----------------------------------------------------------------|
G: |----------------------------------------------------------------|
D: |--------------3~----------------3~------------------------------|
A: |--0-3-5-5-5-5----5-3---5-5-5-5----5-3---------3~----------------|
E: |--------------------------------------5-5-5-5----5-3------------|

e: |----------------------------------------------------------------|
B: |-------------------------8-8--------6-6--------8-8--8-----------|
G: |-------------------------7-7--------5-5--------7-7--7-----------|
D: |-------------------------6-6--0-0-0-4-4--------6-6--6-----------|
A: |----------3~-------------7-7--------5-5--------7-7--7-----------|
E: |--5-5-5-5----5-3---0-0-0-0-0-------------0-0-0-0-0--0-----------|

e: |----------------------------------------------------------------|
B: |----------------------------------------------------------8-----|
G: |----------------------------------------------------------7-----|
D: |----------------------------------------------------------6-----|
A: |-----------3~---------------3~---------------3~-----------7-----|
E: |--/5-5-5-5----5-3---5-5-5-5----5-3---5-5-5-5----5-5-5-3-0-0-----|


Chorus:
e: |----------------------------------------------------------------|
B: |----------------------------------------------------------------|
G: |----------------------------------------------------------------|
D: |----------------------------------------------------------------|
A: |------3~----------3~----------3~----------3~--------------------|
E: |--5-5---0-3---5-5---0-3---5-5---0-3---5-5---0-3-----------------|

e: |----------------------------------------------------------------|
B: |----------------------------------------------------------------|
G: |----------------------------------------------------------------|
D: |------3~----------3~--------------------------------5~----------|
A: |--5-5---0-3---5-5---5-3-----3~----------3~------7-7---7-6-------|
E: |------------------------5-5---0-3---5-5---0-3-------------------|

e: |----------------------------------------------------------------|
B: |----------------------------------------------------------------|
G: |----------------------------------------------------------------|
D: |-------3~-------------------------------------------------------|
A: |---5-5---5-3------3~----------3~--------------------------------|
E: |--------------5-5----0-3--5-5----0-3----------------------------|

Solo

Verse:
e: |----------------------------------------------------------------|
B: |----------------------------------------------------------------|
G: |----------------------------------------------------------------|
D: |----------------------------------------------------------------|
A: |-----------3~---------------3~---------------3~--------------3~-|
E: |--/5-5-5-5----5-3---5-5-5-5----5-3---5-5-5-5----5-3---5-5-5-5---|

e: |----------------------------------------------------------------|
B: |----------------------------------------------------------------|
G: |----------------------------------------------------------------|
D: |--------------3~----------------3~------------------------------|
A: |--0-3-5-5-5-5----5-3---5-5-5-5----5-3---------3~----------------|
E: |--------------------------------------5-5-5-5----5-3------------|

e: |----------------------------------------------------------------|
B: |-------------------------8-8--------6-6--------8-8--8-----------|
G: |-------------------------7-7--------5-5--------7-7--7-----------|
D: |-------------------------6-6--0-0-0-4-4--------6-6--6-----------|
A: |----------3~-------------7-7--------5-5--------7-7--7-----------|
E: |--5-5-5-5----5-3---0-0-0-0-0-------------0-0-0-0-0--0-----------|

e: |-----------------------------------------------------------------|
B: |-----------------------------------------------------------------|
G: |-----------------------------------------------------------------|
D: |-----------------------------------------------------------------|
A: |-----------3~---------------3~---------------3~--------------3~--|
E: |--5-5-5-5----5-3---5-5-5-5----5-3---5-5-5-5----5-3---5-5-5-5--5-3|

e: |-----------------------------------------------------------------|
B: |-----------------------------------------------------------------|
G: |-----------------------------------------------------------------|
D: |-----------------------------------------------------------------|
A: |-----------3~---------------3~---------------3~------------------|
E: |--5-5-5-5----5-3---5-5-5-5----5-3---5-5-5-5----5-3---------------|

Outro:
e: |-----------------------------------------------------------------|
B: |-----------------------------------------------------------------|
G: |--9-9-9-9-9-9-9~~--10-10-10-10-10-10-10~~--12-12-12-12-12-12-12~~|
D: |-----------------------------------------------------------------|
A: |-----------------------------------------------------------------|
E: |-----------------------------------------------------------------|

e: |-----------------------------------------------------------------|
B: |-----------------------------------------------------------------|
G: |--13-13-13-13-13-13-13~~-----------------------------------------|
D: |-----------------------------------------------------------------|
A: |-------------------------------3---------------------------------|
E: |-------------------------0-3-5---5-3-5---------------------------|
Добавлено: 01.06.2012
Другие материалы по этой песне:
  • Аккорды и текст

Страница создана 01.06.2012
http://primanota.ru/gary-moore/power-of-the-blues-chords.htm
Привет, Гость.
Предлагаем пройти революционный курс по гитаре.
Подарок от PrimaNota.Ru, забирай!