PrimaNota.ru - самый крупный в мире бесплатный архив песенных текстов, аккордов, табулатур и нот


Gary Moore - Im Tired - аккорды и текст, таба, видео

Регистрация Запомнить меня
Войти через:  Facebook Google Twitter Vk Yandex Mail.ru

Gary Moore - Im Tired - аккорды и текст, таба, видео

Печатать
Просмотров: 271
Im Tired
Gary Moore
-|-5------------------|-------------------------------------------------------
-|--8-7-5-------------|-------------------------------------------------------
-|--------7b8p5---5---|-------------------------------------------------------
-|--------------7-----|-------------------------------------------------------
-|--------------------|-------------------------------------------------------
-|--------------------|-------------------------------------------------------
This lick is repeated x 4 w/ Gary and Albert trading off
 
--5--5--5--5--5--5--5--5--8b9-5--5--8b----8b10-8--5-------5-----------------|-
----------------------------------------------------5-----5-----------------|-
------------------------------------------------------5h7----------0--0-----|-
--------------------------------------------------------------/4-2------4---|-
----------------------------------------------------------------------------|-
----------------------------------------------------------------------------|-
Intro-Albert (1/4 bends) 1/4b

---5---8b--5---------------8b9-8-8-8-5-5-5-5----------------------------------
-5---5-----------5------------------------------------------------------------
-------------5h7------------------------------2b-0----------------------------
---------------------------------------------------2-2------------------------
--------------------5--3------------------------------------------------------
------------------------------------------------------------------------------
1/4b 1/4b

-|----------------------4-5---------------------------------------------------
-|6-7-------------------4-5---------------6-7---------------------------------
-|5-6-------------------5-6---------------5-6---------------------------------
-|6-7-------------------------------------6-7---------------------------------
-|----------------------------------------------------------------------------
-|----------------------------------------------------------------------------
I laid down last night, to tired to wake. I had a chill this morning, too

-----------------------------------------4-5----------------------------------
------------------6-7--------------------4-5-----------------6-7--------------
------------------5-6--------------------5-6-----------------5-6--------------
------------------6-7----------------------------------------6-7--------------
------------------------------------------------------------------------------
------------------------------------------------------------------------------
tired to shake. I got a good poker hand, too tired to win. I can hear my

------------------------------------------------|8b10-8--5--8-----5-----------
------------------------------------------------|-------------5h7---8--5\3----
------------------------------------------------|--------------------------5--
------------------------------------------------|-----------------------------
------------------------------------------------|-----------------------------
------------------------------------------------|-----------------------------
baby knockin to tired to let her in. I'm tired. Yeah, I'm

------------------------------------------------------------------------------
--3b4-------------------5--8-8-8--7--5---------8------------------------------
------5p2-0-2-2------------------------8--7--5---7b8--5--7b8--5---------------
----------------------------------------------------------------7--5--7-------
------------------------------------------------------------------------------
------------------------------------------------------------------------------
tired. Too tired. Too tired for anything.

----------------------|-------------------------------------------------------
----------------------|-------------------------------------------------------
-5--------------------|-------------------------------------------------------
---7-5-------2--2--2--|-------------------------------------------------------
-------5--3-----------|-------------------------------------------------------
----------------------|-------------------------------------------------------
I'm too tired to walk. Too tired to run. I can hear

-------------------------------------------------|/12--8-8-8-8-8--5--8/12\8-5-
-------------------------------------------------|----------------------------
-------------------------------------------------|----------------------------
-------------------------------------------------|----------------------------
-------------------------------------------------|----------------------------
-------------------------------------------------|----------------------------
my baby calling, too tired, too tired. I'm tired.

------------------------------------------------------------------------------
-5-----------------------------5h7--------------------------------------------
---8--7--5b6-------------------------------5----------------------------------
-------------7--5--7b--7----------------------7--5--7--7----------------------
------------------------------------------------------------------------------
------------------------------------------------------------------------------
1/4 bend (Rpt 5h7 18x)

-|-------------------3--3---------------------------5--3----------------------
-|------------------------5p3-------5p3------5-----------5p3------------------
-|----------------------------5---------5p2------------------5----------------
-|----------------------------------------------------------------------------
-|----------------------------------------------------------------------------
-|----------------------------------------------------------------------------
"Take over Albert"

-------------------5--8p7p5--5--8--10b11-10b11-10b11--8--5--------------------
-5p3----3---------------------------------------------------8--5--7-----------
-----5-----5---------------------------------------------------------7--5-----
---------------------------------------------------------------------------7--
------------------------------------------------------------------------------
------------------------------------------------------------------------------


----------------------------------------------------------------------|-------
--------------7b8-5---------------------------------------------------|-------
-7b8-5--------------7-5-7--5----------7b8-5--------5--------5---------|-------
-------7---------------------7-5------------7-5-7----7-5-7----7-5-----|-------
---------------------------------7--------------------------------5-3-|-------
----------------------------------------------------------------------|-------


-10b11-8-8-------------------------------------------8b10--5------------------
-----------10-10-10-10-10-10-10--13b16--10-10-13\------------8-5--------------
-----------------------------------------------------------------8-7-5---5----
-----------------------------------------------------------------------7---7--
------------------------------------------------------------------------------
------------------------------------------------------------------------------
Gary's solo

---------------------5--------------------------------------------------------
----------------/5-5---8p5---5\3---3--5b--------------------------------------
-5-7-7/8-------------------7-----5----5b---------------------------5^---------
---------7^7^----------------------------4-3-2-0------------0h2---5-----------
--------------------------------------------------4--0--0h3-------------------
------------------------------------------------------------------------------


------------------------------------------------------------------------------
--------------------------------------------------------------10b11-10-10-----
-8b9--8--8b9--8--8b9--8---10b11--10---10b11--10---10b11--10-------------------
------------------------------------------------------------------------------
------------------------------------------------------------------------------
------------------------------------------------------------------------------


-------------------------------------|----------------------------------------
-10b11--10-9-8-----------------------|----------------------------------------
---------------9-8-7\5-5h7-5---------|----------------------------------------
-----------------------------7-------|----------------------------------------
---------------------------------7-7-|----------------------------------------
-------------------------------------|----------------------------------------
I'm tired of prosperity, tired of

-------------------------------------------------------------8/10-10b11--8--5-
------------------------------------------------------------------------------
------------------------------------------------------------------------------
------------------------------------------------------------------------------
------------------------------------------------------------------------------
------------------------------------------------------------------------------
luck. I'm sittin' on a pin, too tired to get up. I'm tired.

-8p5---------------5----------------------------------------------------------
----8p5--------------8--5---------------------------5h7-----------------------
--------------------------8--7--5---------------------------------------------
----------------------------------7--5-7-7------------------------------------
------------------------------------------------------------------------------
------------------------------------------------------------------------------
I declare, I'm tired. I'm too tired. (rpt 5h7 17x)

------------------------------------------------------------------------------
-----------------------------8-8-8-8-8-8-8-8-8-8-8-8-8-8-8-8-8-8-8-8-8/17-17\-
-8--7--5---------------------9-9-9-9-9-9-9-9-9-9-9-9-9-9-9-9-9-9-9-9-9/18-18\-
---------5h7--7--5------------------------------------------------------------
-------------------7----------------------------------------------------------
------------------------------------------------------------------------------
Oh Albert I'm tired.

--------------------3/5---8p5------8--10-10b11-10b11-10b11-10b11-8------------
--------------------------------10----------------------------------10-8-10---
------------------------------------------------------------------------------
------------------------------------------------------------------------------
------------------------------------------------------------------------------
------------------------------------------------------------------------------
You better take over

---------------------------------------------5--------------------------------
-8--5----------8p5-----------------------------8-7-5--------------------------
------8--7--5------8b--7p5--7p5--7p5--7/8-5----------7b8p5---5----------------
-----------------------------------------------------------7------------------
------------------------------------------------------------------------------
------------------------------------------------------------------------------
rpt x4 END!

------------------------------------------------------------------------------
------------------------------------------------------------------------------
------------------------------------------------------------------------------
------------------------------------------------------------------------------
------------------------------------------------------------------------------
------------------------------------------------------------------------------
Добавлено: 14.01.2014
Другие материалы по этой песне:
  • Аккорды и текст

Страница создана 11.03.2012
http://primanota.ru/gary-moore/im-tired-chords.htm
Привет, Гость.
Предлагаем пройти революционный курс по гитаре.
Подарок от PrimaNota.Ru, забирай!