PrimaNota.ru - самый крупный в мире бесплатный архив песенных текстов, аккордов, табулатур и нот


Gary Hoey - Lowrider - таба, видео

Регистрация Запомнить меня
Войти через:  Facebook Google Twitter Vk Yandex Mail.ru

Gary Hoey - Lowrider - таба, видео

Печатать
Просмотров: 118
tabbed by Ryan Barclay   email: pinkdawgg@aol.com


This is my first tab, and I didn't see any other tabs for this song so, here it goes. 
in F# (which spans the second to fifth fret pentatonic for those of you who want to solo)

Little intro thing with wah wah pedal
E------------------------------------------------------------------------|
B------------------------------------------------------------------------|
G------------------------------------------------------------------------|
D------------------------------------------------------------------------|
A---------4----------4-----------4---------------------------------------|
E----0----2-----0----2-----0-----2---------------------------------------|

2nd part of intro (play twice)

E--2--2--2-2--2--2---2---------2--------------------------------|
B--5--5--5-5--4--2---2------4--2--4--2--------------------------|
G---------------------------4-----4--2--------------------------|
D---------------------------------------------------------------|
A---------------------------------------------------------------|
E---------------------------------------------------------------|


E--2--2--2-2--2--2---2----------------------------------------------------|
B--5--5--5-5--4--2---2-----4(bend up and back down)--4(same thing)--------|
G--------------------------4(bend up and back down)--4(same thing)--------|
D-------------------------------------------------------------------------|
A-------------------------------------------------------------------------|
E-------------------------------------------------------------------------|

then when the verse kicks in, play this with wah pedal and pinch harmonics

verse, dont know how many times its played, but this is the main verse riff
E----------------------------------------------------------------------|
B----------------------------------------------------------------------|
G---4(bend up)--2------------------------------------------------------|
D------------------4-----2---1------1--2--1----------------------------|
A-------------------------------4--------------------------------------|
E----------------------------------------------------------------------|


then the chorus

E----------------------------------------------------------------------|
B----------------------------------------------------------------------|
G----3--3---3--3--3---4--6--------3--4--3------------------------------|
D------------------------------4-----------4---------------------------|
A----------------------------------------------------------------------|
E----------------------------------------------------------------------|


E-------------------------------------------------------------------|
B-------------------------------------------------------------------|
G-------------------------------------------------------------------|
D---2--2--2--2---2---------2--2--2--2--2------2--2------------------|
A--------------------------------------------------4----------------|
E--------------------------------------------------2----------------|

thats pretty much the whole song, I wont do the solos, but if you want to, its in F#. 
means, if your in standard tuning you can play a closed pentatonic scale at the 2 to the 5 
(low E) and the 14 to the 17 (low E). Thats where Gary solos at in this song

I hope this helped anybody out that loves gary hoey and wants to play lowrider
Добавлено: 30.05.2012
Другие материалы по этой песне:
  • Аккорды и текст

Страница создана 30.05.2012
http://primanota.ru/gary-hoey/lowrider-chords.htm
Привет, Гость.
Предлагаем пройти революционный курс по гитаре.
Подарок от PrimaNota.Ru, забирай!