PrimaNota.ru - самый крупный в мире бесплатный архив песенных текстов, аккордов, табулатур и нот


Gary Clark Jr - Church - аккорды и текст, видео

Регистрация Запомнить меня
Войти через:  Facebook Google Twitter Vk Yandex Mail.ru

Gary Clark Jr - Church - аккорды и текст, видео

Печатать
Просмотров: 253
Уроки эстрадного вокала в Санкт-Петербурге
Авторы музыки: Gary Clark Jr.
Авторы текста: Gary Clark Jr.
Church
Gary Clark Jr
Artist: Gary Clark Jr
Song: Church
Album: The Story of Sonny Boy Slim


Tuning: Standard
Capo: None 

Chords:
     G   C   Em  F   Am C9/B
e|---3---3---0---1---0---x---|
B|---3---3---0---1---1---1---|
G|---0---0---0---2---2---0---| 
D|---0---2---2---3---2---0---| 
A|---2---3---2---3---0---2---|
E|---3---x---0---1---x---x---| 

[Intro]
G - C G - C x 2

[Chorus]
G     C  G     C Em        F       G     C G 
Lord, my Lord, i need your helping hand


[Verse]
C      G    C      G      C        G    C      G 
I'm in love with a woman, who's in love with a man 
          Am - C9/B C           G    C G
I can't be               living here
C       G      C         G       C     G      C     G
  I was taught to be patient and I was taught to be kind 
          Am - C9/B C           G    C G
But i unwind


[Chorus]
G     C  G     C Em        F       G     C G - C
Lord, my Lord, i need your helping hand


[Bridge]
                           
e|---0----0--0---0-0---0-0---0-0--0-0--0---|
B|---0----0--0---0-0---0-0---0-0--0-0--0---|
G|---0----0--0---0-0---0-0---0-0--0-0--0---| x 3
D|---x----x--x---x-x---x-x---x-x--x-x--x---| 
A|---10---10-9---9-7---7-5---5-2--3-5--x---|
E|-------------------------------------3---|


e|---0----0--0---0-0---0-0---0-0--0-0--2---|
B|---0----0--0---0-0---0-0---0-0--0-0--2---|
G|---0----0--0---0-0---0-0---0-0--0-0--0---| x 1
D|---x----x--x---x-x---x-x---x-x--x-x--0---| 
A|---10---10-9---9-7---7-5---5-2--3-5--2---|
E|-------------------------------------3---|

C G - C G - C - G 


[Verse]
  G      C      G    C         G       C     G
I worked long hours, now i'm drunk and i'm stoned
                 Am - C9/B C           G             C G
But i'm all alone                    miles from home 


[Chorus]
G     C  G     C Em        F       G     C 
Lord, my Lord, i need your helping hand
G     C  G     C Em        F       G     C G - C
Lord, my Lord, i need your helping hand


[Outro]
G - C G - C  x4
Добавлено: 28.04.2016
Другие материалы по этой песне:
  • Аккорды и текст

Страница создана 28.04.2016
http://primanota.ru/gary-clark-jr/church-chords.htm
Привет, Гость.
Предлагаем пройти революционный курс по гитаре.
Подарок от PrimaNota.Ru, забирай!