PrimaNota.ru - самый крупный в мире бесплатный архив песенных текстов, аккордов, табулатур и нот


Garotos Podres - Agente Secreto - бас-таба, видео

Регистрация Запомнить меня
Войти через:  Facebook Google Twitter Vk Yandex Mail.ru

Garotos Podres - Agente Secreto - бас-таба, видео

Печатать
Просмотров: 125
Уроки эстрадного вокала в Санкт-Петербурге
- Garotos Podres - Agente Secreto
- Tabbed by: Pacu, bassist from a brazilian punk rock banda called PunkAss.
__________
Intro
G|-------------|-----|
D|-------------|-----|
A|-00-33-00-33-|-16x-|
E|-------------|-----|

Verse
G|-------------|----|
D|-------------|----|
A|-00-33-00-33-|-8x-|
E|-------------|----|

Chorus
G|-------------------|----|--------------|----|
D|------------556655-|----|----------6-6-|----|
A|-6-666666-5--------|-3x-|-00000000--0--|-1x-|
E|-------------------|----|--------------|----|

Intro
G|-------------|----|
D|-------------|----|
A|-00-33-00-33-|-4x-|
E|-------------|----|

Verse
G|-------------|----|
D|-------------|----|
A|-00-33-00-33-|-8x-|
E|-------------|----|

Chorus
G|-------------------|----|--------------|----|
D|------------556655-|----|----------6-6-|----|
A|-6-666666-5--------|-3x-|-00000000--0--|-1x-|
E|-------------------|----|--------------|----|

Bridge I
G|-------------|----|
D|-------------|----|
A|-00-33-00-33-|-8x-|
E|-------------|----|

Chorus
G|-------------------|----|--------------|----|
D|------------556655-|----|----------6-6-|----|
A|-6-666666-5--------|-3x-|-00000000--0--|-1x-|
E|-------------------|----|--------------|----|

Bridge II
G|---------------------|----|
D|---------------------|----|
A|-00-33-00-33-00-33-0-|-3x-|
E|---------------------|----|

G|-------------------------|----|
D|-------------------------|----|
A|-00-33-00-33-00-33-00-33-|-1x-|
E|-------------------------|----|

Intro
G|-------------|----|
D|-------------|----|
A|-00-33-00-33-|-8x-|
E|-------------|----|

Chorus
G|-------------------|----|--------------|----|
D|------------556655-|----|----------6-6-|----|
A|-6-666666-5--------|-3x-|-00000000--0--|-1x-|
E|-------------------|----|--------------|----|

Ending
G|---------------------|----|
D|---------------------|----|
A|-00-33-00-33-00-33-0-|-3x-|
E|---------------------|----|

G|-----------------------------|----|
D|-----------------------------|----|
A|-00-33-00-33-00-33-00-33-0~~-|-1x-|
E|-----------------------------|----|
Добавлено: 08.03.2012
Другие материалы по этой песне:
  • Аккорды и текст

Страница создана 08.03.2012
http://primanota.ru/garotos-podres/agente-secreto-chords.htm
Привет, Гость.
Предлагаем пройти революционный курс по гитаре.
Подарок от PrimaNota.Ru, забирай!