PrimaNota.ru - самый крупный в мире бесплатный архив песенных текстов, аккордов, табулатур и нот


Garnet Crow - As The Dew - аккорды и текст, видео

Регистрация Запомнить меня
Войти через:  Facebook Google Twitter Vk Yandex Mail.ru

Garnet Crow - As The Dew - аккорды и текст, видео

Печатать
Просмотров: 96
As The Dew
Garnet Crow
As the Dew - Garnet Crow
Chord voicings used:
    Intro
Gm7 Gm6 C  Eb F#dim D7
-3---3--3--3--------5--|
-6---5--5--4---11---7--|
-3---3--5--3---12---5--|
-3---3--5--5---11---7--|
-5---5--3--6---10---5--|
-3---3-----------------|

    part 1       | part 2
Gm  F EbM7 Bb Eb | D# G#m D#/G B/F# C#/F E B A#m7 D#7 EM7 B/D#
-3--1--3---1--3--|-3---4---4----2----1---0-2--1--------4---7-
-3--1--3---3--4--|-4---4---5----4----2---0-4--2----4---4---4--
-3--2--3---3--3--|-3---4---4----4----1---1-4--1----6---4---4--
-5--3--5---3--5--|-5---6---6----4----3---2-4--3----5---6---4--
-5--3--6---1--6--|-6---6---7----2----4---2-2--1----6---7---6--
-3--1------------|-----4---4----2----1---0-------------0-----

    Outro
G#m7 C#9 Gdim Gdim G#m9
-4----4---3--------6
-7----4---2--------4
-4----4---3----3---4
-4----3---2----5---4
-6----4--------4---6
-4-------------3---4

|Gm7|Gm6|Gm7 |Gm6     | [solo 1]
|Gm7|C  |Eb  |F#dim D7|

Gm  F EbM7 Bb     Gm    F EbM7 Bb
生憎の雨だけど  予定通り出かけましょう
Gm     F EbM7    Bb   Gm    F   EbM7  Bb
せっかくのDress upも あなたには見えてないし

    | Gm F | EbM7 Bb       | Gm F | EbM7 Bb |
iyea yea yea         yea yea yea

Gm  F EbM7 Bb    Gm    F EbM7 Bb
週末の 桜通りなら 華やいだ 白い  道
    Gm F  EbM7 Bb  Gm     F  EbM7 Bb
足音響 く美術館 で  懐かしんだとSerusier(セルジェ)

F           Gm 
二度と会わない関係ならば
Eb         Bb
傷つ け合わずに
D7       Gm   C
甘い想い出の日々と
 Eb      F F F D D  Dsus4 Dsus4 Dsus4 D# D#
思うことも出来るけど

    G#m  D#/G  B/F#  C#/F
時の流れには   逆らえ   ず
  E     B   A#m7    D#
色褪せてゆく想いもあり

        G#m  D#/G  B/F#  C#/F
それでもさめざめ  と流れ  てく
E   B          A#m7      D#
涙はちょっといいもんじゃない
  E            B     A#m7 D#  G#m
あぁ...あぁ ひゅるるる 陽は 墜ち て
  E   B      D#  D#/G  G#m
まだ愛があるみたい じゃない

Solo2 | G#m  D#/G | B/F#  C#/F | EM7 B/D# | C#/F D#/G |

Gm  F  EbM7 Bb   Gm F  EbM7     Bb
大切な話だって    3分で終わっちゃうし
   Gm  F  EbM7  Bb  Gm F  EbM7  Bb
窓の外でも眺めて 華やいでく物思い

F           Gm 
風に乗ってカモメがゆくよ
Eb          Bb
空の色(あお)ってなんてキレイ
D7         Gm     C
まるで果てのない世界
    Eb       FFFDD Dsus4 Dsus4 Dsus4 D# D#
揺れて...揺れて憧れた

       G#m D#/G      B/F#    C#/F
 人はこの空 へ   羽(は)ばたけ  る
       E      B      A#m7  D#
翼(つばさ) などもて たと しても

         G#m     D#/G B/F#  C#/F
行(ゆ)く先を   知る術が  無いから
E   B          A#m7    D#
心もとなく 彷徨(さまよ)うでしょう
 E             B     A#m7 D#7 G#m
あぁ...あぁ ひゅるるる 日は 落ち て
     E    B  D# D#/G G#m
家(うち)へ帰る道 があ る

|G#m7 |G#m6 |G#m7 |G#m6 |

E E    B B     D# D#     G#m G#m7
    あぁ   あぁ     人間だもの
E E    B B    D#
    あぁ   あぁ 露と墜ちる


    G#m  D#/G   B/F#  C#/F
時の流れには    逆らえ ず
  E     B   A#m7   D#
色褪せてゆく想いもあり

     G#m  D#/G  B/F#  C#/F
それでもさめざめと流れてく
E   B       A#m7     D#
涙はちょっといいもんじゃない
 E             B    A#m7 D#7  G#m
あぁ...あぁ ひゅるるる陽は 墜ち て
  E   B      D#  D#/G   G#m
まだ愛があるみたい じゃな い

| G#m7  | C#9  | E  | Gdim |
| G#m7  | C#9  | E  | Gdim |
| G#m9 G#m7 G#m9 G#m7 | G#m9


Solo 1

 |Gm7|Gm6|Gm7 |Gm6           |
e|---|---|----|--------------|
b|---|---|----|-------10-----|
g|---|---|----|---10------10/|
d|---|---|----|-12--12--12---|
a|---|---|----|--------------|
e|---|---|----|--------------|

  |Gm7  |C   |Eb                             |F#dim D7 |
e|------|----|---13-10-13-13-10----10-10-----|---------|
b|------|----|------------------13-------13-9|-/10\-/7\|
g|/14---|12--|-------------------------------|---------|
d|------|----|-------------------------------|-/-9\-/7\|
a|------|----|-------------------------------|---------|
e|------|----|-------------------------------|---------|

Solo 2

        |G#m  D#/G        | B/F#   C#/F | EM7  B/D#| C#/F      D#/G |
e-------|---------6-7-6---|-------------|----------|----------------|
b-------|9----7-9------9-7|-------------|--7h9p7---|/12--11p9-------|
g-----/8|-----------------|8---6p4h6-6h8|9------8-8|-----------12-8-|
d-------|-----------------|-------------|----------|----------------|
a-------|-----------------|-------------|----------|----------------|
e-------|-----------------|-------------|----------|----------------|

Добавлено: 14.07.2015
Другие материалы по этой песне:
  • Аккорды и текст

Страница создана 14.07.2015
http://primanota.ru/garnet-crow/as-dew-chords.htm
Привет, Гость.
Предлагаем пройти революционный курс по гитаре.
Подарок от PrimaNota.Ru, забирай!