PrimaNota.ru - самый крупный в мире бесплатный архив песенных текстов, аккордов, табулатур и нот


Gareth Liddiard - Strange Tourist - таба, видео

Регистрация Запомнить меня
Войти через:  Facebook Google Twitter Vk Yandex Mail.ru

Gareth Liddiard - Strange Tourist - таба, видео

Печатать
Просмотров: 115
Title track from an exceptional solo Australian album by Drones frontman Gareth Liddiard 
(ATP recordings). Check out youtube for a few crazy explanations of the song's meaning 
etc from the man himself, entertaining stuff.

The version I have (very sloppily) tabbed is the one which can be seen at 
http://www.youtube.com/watch?v=ob3M9xe5AHQ&feature=related and NOT the album version.

The last part of the intro, marked (5) I am not at all sure about, its pretty tricky. 
Gaz fingerpicks the bass notes with his thumb and does some hectic hammer on/pull offs all 
at the same time with his fingers.

Any corrections, additions welcome.
paddy_d@live.com.au


INTRO
Chords
Em Am Bm(open e string)Am

e---0-------------------------0-------------------------------|
B---0--0-------0h1--0-----------3--------1-/--0-0-------------|
G---2---0----2---2---2------4-----4------2-/--4p0-------------| (1)
D---2--------2---2--------4------------2----------------------|
A---0--------0----------2------------0------------------------|
E-0-----------------------------------------------------------|

e---0---------------------------------------------------------|
B---0--0--------0h1-------------------------------------------|
G---2---0-----2------4-4p2p0h2--4p2p0-------------------------| (2)
D---2--------------------------------4-4p0--------------------|
A---0--------0------------------------------2-----------------|
E-0-----------------------------------------------------------|

e---0---------------------------------------------------------|
B---0--0--------0h1-------------------------------------------|
G---2---0-----2------4-4p2p0h2--4p2p0-------------------------| (3)
D---2--------------------------------4-4p0--------------------|
A---0--------0------------------------------2-----------------|
E-0-----------------------------------------------------------|

e---0-----------------------0----------------------------------|
B---0---3~--1---0-------------3---------1-/-0-0----------------|
G---2--------2---2-------4------4-------2-/-4p0----------------|(4)
D---2------------------4---------2-----2-----------------------|
A---0----------------2---------------0-------------------------|
-E-0-----------------------------------------------------------|

e---0---------------------------------------------------------|
B---0--0--------0h1-------------------------------------------|
G---2---0-----2-----------------4-4p2p0h2--4p2p0--------------| (5)
D---2---------------------------------------------4-4p0-------|
A---0--------0-------------------------------------------2----|
E-0-----------------0h2h3 3p2p0-------------------------------|
Добавлено: 03.09.2013
Вам также может быть интересно:
Другие материалы по этой песне:
  • Аккорды и текст

Страница создана 03.09.2013
http://primanota.ru/gareth-liddiard/strange-tourist-chords.htm
Привет, Гость.
Предлагаем пройти революционный курс по гитаре.
Подарок от PrimaNota.Ru, забирай!