PrimaNota.ru - самый крупный в мире бесплатный архив песенных текстов, аккордов, табулатур и нот


Gareth Liddiard - Blondin Makes An Omelette - таба, видео

Регистрация Запомнить меня
Войти через:  Facebook Google Twitter Vk Yandex Mail.ru

Gareth Liddiard - Blondin Makes An Omelette - таба, видео

Печатать
Просмотров: 72
-------------------------------------------------------------------------------
                             Blondin Makes An Omelette - Gareth Liddiard
-------------------------------------------------------------------------------
Tabbed by: rob_thomas
Email: ricketsmctell@gmail.com

Tuning: standard, no capo

Notes:
      the fingering for this song is based around the one chord,
      if you hook your thumb over the fretboard and play the bass notes,
      you can let the notes ring out and not move your hand!
 
Not noted in the tab but
there is a quarter note pause      But In some parts of the song Gareth plays
after the bass note and            an F# in place of the 2nd pause.
also the high F#

      q       q                  q
e|----------2--------------/-----------2------------------------------------|
B|---------------------3--/------------------------3------------------------|
G|---------------0-------/-------------------0------------------------------|
D|-------4----------4---/-----------4-----4-----4---------------------------|
A|---------------------/----------------------------------------------------|
E|--2-----------------/--------2--------------------------------------------|



Intro, and 1st verse

e|--------2-----------------2-----------------2-----------------2-----------|
B|-----------------3-----------------3-----------------3-----------------3--|
G|-----------0-----------------0-----------------0-----------------0--------|
D|-----4--------4--------4--------4--------4--------4--------4--------4-----|
A|--------------------------------------3-----------------------------------|
E|--2-----------------3-----------------------------------3-----------------|

e|--------2-----------------2-----------------2-----------------------------|
B|-----------------3-----------------3-----------------3--------3-----------|
G|-----------0-----------------0-----------------0--------0--------0-----0--|
D|-----4--------4--------4--------4--------4--------4--------4--------4-----|
A|--------------------------------------3-----------------------------------|
E|--2-----------------3-----------------------------------------------------|


2nd verse and 3rd verse

e|--------2-----------------2-----------------2-----------------2-----------|
B|-----------------3-----------------3-----------------3-----------------3--|
G|-----------0-----------------0-----------------0-----------------0--------|
D|-----4--------4--------4--------4--------4--------4--------4--------4-----|
A|--3-----------------------------------------------------------------------|
E|--------------------3-----------------2-----------------3-----------------|

e|--------2-----------------2-----------------2-----------------------------|
B|-----------------3-----------------3-----------------3--------3-----------|
G|-----------0-----------------0-----------------0--------0--------0--------|
D|-----4--------4--------4--------4--------4--------4--------4--------------|
A|--3-----------------------------------------------------------------------|
E|--------------------3-----------------2-----------------------------------|


4th verse (same as first but with f# replaced with a bm7 chord hit hard)

e|--0--0---------------2----------------------------------------------------|
B|--3--3------------------------3-------------------------------------------|
G|--2-----0h2-------------0----------etc------------------------------------|
D|--4-----4----4----4--------4----------------------------------------------|
A|--0-----------------------------------------------------------------------|
E|----------------3---------------------------------------------------------|


The Order of the song

intro,
verse 1
verse 2
verse 2
verse 4 (bm7) 
then verse 1, 1, 2, 2, 2, 4, 2, 4, solo, 1 instrumental, 1, 4


Sorry the solo is not included in the tab, when I finish working it out
I'll upload it too,

Cheers

http://thedrones.com.au/
************************************

| /   slide up
| \   slide down
| h   hammer-on
| p   pull-off
| ~   vibrato
| +   harmonic
| x   Mute note
| b   Bend
| pb  Pre-bend
| br  Bend release
| pbr Pre-bend release
| brb Bend release bend

************************************
Добавлено: 02.11.2013
Вам также может быть интересно:
Другие материалы по этой песне:
  • Аккорды и текст

Страница создана 02.11.2013
http://primanota.ru/gareth-liddiard/blondin-makes-an-omelette-chords.htm
Привет, Гость.
Предлагаем пройти революционный курс по гитаре.
Подарок от PrimaNota.Ru, забирай!