PrimaNota.ru - самый крупный в мире бесплатный архив песенных текстов, аккордов, табулатур и нот


Gardens - Wake - таба, видео

Регистрация Запомнить меня
Войти через:  Facebook Google Twitter Vk Yandex Mail.ru

Gardens - Wake - таба, видео

Печатать
Просмотров: 104
-------------------------------------------------------------------------------
                             WAKE - Gardens
-------------------------------------------------------------------------------

Tuning: Standard

Played slowly, with lots of delay

e|-------------------------------|
B|---------------------7---------|
G|-------7------7---------7---7--| x2
D|---9------9------9--------9----|
A|-----7------7------7-----------|
E|-0-----------------------------|

e|-------------------------------|
B|-------------------------------|
G|-------0------0------0---------|
D|---4------4------4------4---4--|
A|-3---3------3------3------3----|
E|-------------------------------|

e|-------------------------------|-------------------------------|
B|---------------------7---------|---------------------7---------|
G|-------7------7---------7---7--|-------7------7---------7---7--|
D|---9------9------9--------9----|---9------9------9-------------|
A|-----7------7------7-----------|-----7------7------7------7----|
E|-0-----------------------------|-0-----------------------------|

e|-------------------------------|
B|-------------------------------|
G|-------0------0------0---------|
D|---4------4------4------4---4--|
A|-3---3------3------3------3----|
E|-------------------------------|

e|-------------------------------|
B|---------------------7---------|
G|-------7------7---------7---7--| x2
D|---9------9------9--------9----|
A|-----7------7------7-----------|
E|-0-----------------------------|

e|--------------------------------|
B|--------------------------------|
G|---0---0------0------0------0---|
D|----------4------4--------4---4-|
A|-3---3------3------3--3/5-------|
E|--------------------------------|

e|-------------------------------|----------------------------------|
B|---------------------7---------|----------------------------------|
G|-------7------7---------7---7--|-------7------7------7------7-----|
D|---9------9------9--------9----|---9---9--9---9--9---9--9---9-----|
A|-----7------7------7-----------|-----7-7----7-7----7-7----7-7-----|
E|-0-----------------------------|-0--------------------------------|



************************************

| /   slide up
| \   slide down
| h   hammer-on
| p   pull-off
| ~   vibrato
| +   harmonic
| x   Mute note
| b   Bend
| pb  Pre-bend
| br  Bend release
| pbr Pre-bend release
| brb Bend release bend

************************************
Добавлено: 12.05.2015
Другие материалы по этой песне:
  • Аккорды и текст

Страница создана 12.05.2015
http://primanota.ru/gardens/wake-chords.htm
Привет, Гость.
Предлагаем пройти революционный курс по гитаре.
Подарок от PrimaNota.Ru, забирай!