PrimaNota.ru - самый крупный в мире бесплатный архив песенных текстов, аккордов, табулатур и нот


Gardens - Death In The Family - таба, видео

Регистрация Запомнить меня
Войти через:  Facebook Google Twitter Vk Yandex Mail.ru

Gardens - Death In The Family - таба, видео

Печатать
Просмотров: 115
-------------------------------------------------------------------------------
                             DEATH IN THE FAMILY - Gardens
-------------------------------------------------------------------------------

Tuning: Standard

Quiet intro:
e|---------------------------------------------|
B|----------------4----------4----------4------|
G|--------4-----------4----------4----------4--|
D|-----4h6---------------4----------4----------|
A|-4----------7--------------------------------|
E|---------------------------------------------|


Band enters:
e|---------------------------------------------|
B|----------------4----------4----------4------|
G|--------4-----------4----------4----------4--|
D|-----4h6---------------4----------4----------|
A|-4----------7--------------------------------|
E|---------------------------------------------|
 |                                             |
e|---------------------------------------------|
B|-----4--------------0------------------------|
G|---------4-----------------------------------|
D|----------------6----------4---6--2----------|
A|-4----------7----------2---------------2-/-6-|
E|---------------------------------------------|


e|---------------------------------------------|
B|----------------4----------4----------4------|
G|--------4-----------4----------4----------4--|
D|-----4h6---------------4----------4----------|
A|-4----------7--------------------------------|
E|---------------------------------------------|
 |                                             |
e|---------------------------------------------|
B|-----4--------------0------------------------|
G|---------4-----------------------------------|
D|----------------6----------------------------|
A|-4----------7----------2---------------------|
E|---------------------------------------------|

Repeat a few times, then:
e|----------------------------------------|
B|----------------------------------------|
G|----------------------------------------|
D|----------------------------------------|
A|-/4~~~~~--------------------------------|
E|----------------------------------------|



************************************

| /   slide up
| \   slide down
| h   hammer-on
| p   pull-off
| ~   vibrato
| +   harmonic
| x   Mute note
| b   Bend
| pb  Pre-bend
| br  Bend release
| pbr Pre-bend release
| brb Bend release bend

************************************
Добавлено: 12.05.2015
Вам также может быть интересно:
Другие материалы по этой песне:
  • Аккорды и текст

Страница создана 12.05.2015
http://primanota.ru/gardens/death-in-family-chords.htm
Привет, Гость.
Предлагаем пройти революционный курс по гитаре.
Подарок от PrimaNota.Ru, забирай!