PrimaNota.ru - самый крупный в мире бесплатный архив песенных текстов, аккордов, табулатур и нот


The Garden - The Tower - бас-таба, видео

Регистрация Запомнить меня
Войти через:  Facebook Google Twitter Vk Yandex Mail.ru

The Garden - The Tower - бас-таба, видео

Печатать
Просмотров: 82
-------------------------------------------------------------------------------
                             The Tower - The Garden
-------------------------------------------------------------------------------
Tabbed by: Natascha Farmer

G|---------------------------------------------------------------------------|
D|-----4-------1-------4-------1-------4-------1-------4-------1-------------|
A|---4-------1-------4-------1-------4-------1-------4-------1---------------|
E|-5----0--2----0--5----0--2----0--5----0--2----0--5----0--2----0------------|

G|---------------------------------------------------------------------------|
D|-----2-------1-------2-------1-------2-------1-------2-------1-------------|
A|---2-------1-------2-------1-------2-------1-------2-------1---------------|
E|-3----0--2----0--3----0--2----0--3----0--2----0--3----0--2----0------------|




Добавлено: 23.10.2015
Другие материалы по этой песне:
  • Аккорды и текст

Страница создана 23.10.2015
http://primanota.ru/garden/tower-chords.htm
Привет, Гость.
Предлагаем пройти революционный курс по гитаре.
Подарок от PrimaNota.Ru, забирай!