PrimaNota.ru - самый крупный в мире бесплатный архив песенных текстов, аккордов, табулатур и нот


The Garden - The Mantis - бас-таба, видео

Регистрация Запомнить меня
Войти через:  Facebook Google Twitter Vk Yandex Mail.ru

The Garden - The Mantis - бас-таба, видео

Печатать
Просмотров: 176
Уроки эстрадного вокала в Санкт-Петербурге
-------------------------------------------------------------------------------
                             The Mantis - The Garden
-------------------------------------------------------------------------------
Tabbed by: Natascha Farmer


G|---------------------------------------------------------------------------|
D|-1-1-1-1-1-1-1-1-0-0-0-0-0-0-0-0-1-1-1-1-1-1-1-1-0-0-0-0-0-0-0-0-----------| 
A|-2-2-2-2-2-2-2-2-0-0-0-0-0-0-0-0-2-2-2-2-2-2-2-2-0-0-0-0-0-0-0-0-----------| x2
E|---------------------------------------------------------------------------|

G|---------------------------------------------------------------------------|
D|---------------------------------------------------------------------------|
A|---------------------------------------------------------------------------| x2
E|-7-7-7-7-7-0-6-6-6-6-6-0-4-4-4-4-4-0-2-2-2-2-2-0---------------------------|

G|---------------------------------------------------------------------------|
D|--------------------------6-6-6-6-6----6-6-6-6-6-6-------------------------|
A|---------------------------------------------------------------------------| 
E|-7-7-7-7-7-0-6-6-6-6-6-0-4----------0-2------------------------------------|  

G|---------------------------------------------------------------------------|
D|--------------------------6-6-6-6-6----6-6-6-------------------------------|
A|---------------------------------------------------------------------------| 
E|-7-7-7-7-7-0-6-6-6-6-6-0-4----------0-2------------------------------------|


Добавлено: 23.10.2015
Другие материалы по этой песне:
  • Аккорды и текст

Страница создана 23.10.2015
http://primanota.ru/garden/mantis-chords.htm
Привет, Гость.
Предлагаем пройти революционный курс по гитаре.
Подарок от PrimaNota.Ru, забирай!