PrimaNota.ru - самый крупный в мире бесплатный архив песенных текстов, аккордов, табулатур и нот


The Garden - Im A Woman - бас-таба, видео

Регистрация Запомнить меня
Войти через:  Facebook Google Twitter Vk Yandex Mail.ru

The Garden - Im A Woman - бас-таба, видео

Печатать
Просмотров: 105
The Garden
I'm A Woman


Tuning: Standard (EADG)



Intro

G|--------------------------------|
D|--------------------------------|
A|--------------------------------|  X2
E|2-2-3-3-4-4-4-4-7-7-7-7-7-7-7-7-|


Verse

G|--------------------------------|
D|--------------------------------|
A|--------------------------------|  X4
E|2-2-3-3-4-4-4-4-7-7-7-7-7-7-7-7-|


Break

G|--------------------------------|
D|--------------------------------|
A|--------------------------------|
E|7-7-5-5-6-6-0-0-1-1-1-1-1-1-1-1-|

G|--------------------------------|
D|--------------------------------|
A|------------------------8--8--8-|
E|7-7-5-5-6-6-0-0-1-1-1-1---------|

G|--------------------------------|
D|--------------------------------|
A|--------------------------------|
E|7-7-5-5-6-6-0-0-1-1-1-1-1-1-1-1-|

G|--------------------------------|
D|--------------------------------|
A|--------------------------------|
E|7-7-5-5-6-6-0-0-1---------------|

Verse

G|--------------------------------|
D|--------------------------------|
A|--------------------------------|  X4
E|2-2-3-3-4-4-4-4-7-7-7-7-7-7-7-7-|


Break

G|--------------------------------|
D|--------------------------------|
A|------------------------8--8--8-|
E|7-7-5-5-6-6-0-0-1-1-1-1---------|

G|--------------------------------|
D|--------------------------------|
A|--------------------------------|
E|7-7-5-5-6-6-0-0-1-1-1-1-1-1-1-1-|

G|--------------------------------|
D|--------------------------------|
A|------------------------8--8--8-|
E|7-7-5-5-6-6-0-0-1-1-1-1---------|

G|--------------------------------|
D|--------------------------------|
A|--------------------------------|
E|7-7-5-5-6-6-0-0-1---------------|


Outro

G|--------------------------------|
D|--------------------------------|
A|--------------------------------|  X3
E|2-2-3-3-4-4-4-4-7-7-7-7-7-7-7-7-|

G|--------------------------------|
D|--------------------------------|
A|-----------------6-6------------|
E|2-2-3-3-4-4-4-4-7-7-7-----------|



Enjoy!
Добавлено: 23.10.2015
Другие материалы по этой песне:
  • Аккорды и текст

Страница создана 23.10.2015
http://primanota.ru/garden/im-a-woman-chords.htm
Привет, Гость.
Предлагаем пройти революционный курс по гитаре.
Подарок от PrimaNota.Ru, забирай!