PrimaNota.ru - самый крупный в мире бесплатный архив песенных текстов, аккордов, табулатур и нот


The Garden - Grass - бас-таба, видео

Регистрация Запомнить меня
Войти через:  Facebook Google Twitter Vk Yandex Mail.ru

The Garden - Grass - бас-таба, видео

Печатать
Просмотров: 40
-------------------------------------------------------------------------------
                             Grass - The Garden
-------------------------------------------------------------------------------
Tabbed by: Natascha Farmer

Tuning: E

G|---------------------------------------------------------------------------|
D|---------------------------------------------------------------------------|
A|--10-----------------------------------------------------------------------| x2
E|-----7-7-7-7/12-12-12-12-12-12-12-12---------------------------------------|

G|---------------------------------------------------------------------------|
D|--------------------------------------14-14-14-14--------------------------|
A|--10-----------------------------------------------------------------------|
E|-----7-7-7-7/12-12-12-12-12-12-12-12---------------------------------------|

G|---------------------------------------------------------------------------|
D|---------------------------------------------------------------------------|
A|--10-----------------------------------------------------------------------| 
E|-----7-7-7-7/12-12-12-12-12-12-12-12---------------------------------------|

G|---------------------------------------------------------------------------|
D|---------------------------------------------------------------------------|
A|--9--8--9--8---------------------------------------------------------------|
E|---------------------------------------------------------------------------|

G|---------------------------------------------------------------------------|
D|---------------------------------------------------------------------------|
A|--10-----------------------------------------------------------------------| 
E|-----7-7-7-7/12-12-12-12-12-12-12-12---------------------------------------|

G|---------------------------------------------------------------------------|
D|--------------------------------------14-14-14-14--------------------------|
A|--10-----------------------------------------------------------------------|
E|-----7-7-7-7/12-12-12-12-12-12-12-12---------------------------------------|

G|---------------------------------------------------------------------------|
D|---------------------------------------------------------------------------|
A|--10-----------------------------------------------------------------------| x2
E|-----7-7-7-7/12-12-12-12-12-12-12-12---------------------------------------|

G|---------------------------------------------------------------------------|
D|-----------0---------------------------------------------------------------|
A|--9--8--9--8---------------------------------------------------------------|
E|---------------------------------------------------------------------------|

G|---------------------------------------------------------------------------|
D|---------------------------------------------------------------------------|
A|--10-----------------------------------------------------------------------| x4
E|-----7-7-7-7/12-12-12-12-12-12-12-12---------------------------------------|

G|---------------------------------------------------------------------------|
D|--9-9-9--------------------------------------------------------------------|
A|--------8-8-8-8-8-9-9-9----------------------------------------------------| x4
E|------------------------8-8-8-8-8------------------------------------------|

G|---------------------------------------------------------------------------|
D|---------------------------------------------------------------------------|
A|--10-----------------------------------------------------------------------| 
E|-----7-7-7-7/12-12-12-12-12-12-12-12---------------------------------------|

G|---------------------------------------------------------------------------|
D|--------------------------------------14-14-14-14--------------------------|
A|--10-----------------------------------------------------------------------|
E|-----7-7-7-7/12-12-12-12-12-12-12-12---------------------------------------|

G|---------------------------------------------------------------------------|
D|---------------------------------------------------------------------------|
A|--10-----------------------------------------------------------------------| 
E|-----7-7-7-7/12-12-12-12-12-12-12-12---------------------------------------|
                                       
G|---------------------------------------------------------------------------|
D|---------------------------------------------------------------------------|
A|--10---------------------------------12------------------------------------| 
E|-----7-7-7-7/12-12-12-12-12-12-12-12---------------------------------------|
                                       PM




| /  slide up
| \  slide down
| h  hammer-on
| p  pull-off
| ~  vibrato
| +  harmonic
| x  Mute note
===============================================================================
Добавлено: 07.11.2015
Другие материалы по этой песне:
  • Аккорды и текст

Страница создана 07.11.2015
http://primanota.ru/garden/grass-chords.htm
Привет, Гость.
Предлагаем пройти революционный курс по гитаре.
Подарок от PrimaNota.Ru, забирай!