PrimaNota.ru - самый крупный в мире бесплатный архив песенных текстов, аккордов, табулатур и нот


The Garden - The Gorilla - бас-таба, видео

Регистрация Запомнить меня
Войти через:  Facebook Google Twitter Vk Yandex Mail.ru

The Garden - The Gorilla - бас-таба, видео

Печатать
Просмотров: 73
The Garden
The Gorilla


Tuning: Standard (EADG)



Intro

G|22-----------22---------------|
D|33-33-55-----33-33-55---------|
A|---55-77--------55-77---------|
E|------------------------------|

G|22---------------|
D|33-33-55-4-3-3-3-|
A|---55-77-6-5-5-5-|  X4
E|-----------------|

Verse

G|----------------|----------------|----------------|----------------|
D|----------------|----------------|----------------|----------------|
A|3-3-3-3-3-3-3-3-|3-3-3-3-3-3-3-3-|----------------|----------------|
E|----------------|----------------|2-2-2-2-2-2-2-2-|2-2-2-2-2-2-2-2-|


G|----------------|----------------|----------------|----------------|
D|----------------|----------------|----------------|----------------|
A|3-3-3-3-3-3-3-3-|3-3-3-3-3-3-3-3-|----------------|----------------|
E|----------------|----------------|2-2-2-2-2-2-2-2-|2---------------|


Break

G|22---------------|
D|33-33-55-4-3-3-3-|
A|---55-77-6-5-5-5-|  X3
E|-----------------|

G|22----------------|
D|33-33-55-4-3-3----|
A|---55-77-6-5-5-10\|  X3
E|------------------|

Verse

G|----------------|----------------|----------------|----------------|
D|----------------|----------------|----------------|----------------|
A|3-3-3-3-3-3-3-3-|3-3-3-3-3-3-3-3-|----------------|----------------|
E|----------------|----------------|2-2-2-2-2-2-2-2-|2-2-2-2-2-2-2-2-|


G|----------------|----------------|----------------|----------------|
D|----------------|----------------|----------------|----------------|
A|3-3-3-3-3-3-3-3-|3-3-3-3-3-3-3-3-|----------------|----------------|
E|----------------|----------------|2-2-2-2-2-2-2-2-|2---------------|


Break

G|22---------------|
D|33-33-55-4-3-3-3-|
A|---55-77-6-5-5-5-|  X3
E|-----------------|

G|22---------------|
D|33-33-55---------|
A|---55-77---------|
E|-----------------|


 
Enjoy!
Добавлено: 23.10.2015
Другие материалы по этой песне:
  • Аккорды и текст

Страница создана 23.10.2015
http://primanota.ru/garden/gorilla-chords.htm
Привет, Гость.
Предлагаем пройти революционный курс по гитаре.
Подарок от PrimaNota.Ru, забирай!