PrimaNota.ru - самый крупный в мире бесплатный архив песенных текстов, аккордов, табулатур и нот


The Garden - Crystal Clear - бас-таба, видео

Регистрация Запомнить меня
Войти через:  Facebook Google Twitter Vk Yandex Mail.ru

The Garden - Crystal Clear - бас-таба, видео

Печатать
Просмотров: 165
The Garden
Crystal Clear


Tuning: Standard (EADG)



Intro (fades in at 0:06)

G|-----------------------------------------------|
D|-----------------------------------------------|
A|-----------------------------------------------|  X2
E|2-2-2-2-2-2-3-3-3-3-3-3-0-0-0-0-0-0-0-0-0-5-5-0|

G|-0-0--0-0-0--0-0-0--0-0---0-|
D|----------------------------|
A|----------------------------|
E|2-2-22-3-3-33-0-0-00-0-0-5-0|

G|-0-0--0-0----0-0-0--0-0-----|
D|----------0-----------------|
A|----------------------------|
E|2-2-22-3-3-33-0-0-00-0-0----|


Verse

G|------------|
D|------------|
A|------------|  X4
E|5-3-2--0-1-2|


Break

G|-----------------------------------------------|
D|-----------------------------------------------|
A|-----------------------------------------------|  X2
E|2-2-2-2-2-2-3-3-3-3-3-3-0-0-0-0-0-0-0-0-0-5-5-0|

G|-0-0--0-0-0--0-0-0--0-0---0-|
D|----------------------------|
A|----------------------------|
E|2-2-22-3-3-33-0-0-00-0-0-5-0|

G|-0-0--0-0-0--0-0-0--0-0---0-|
D|----------------------------|
A|----------------------------|
E|2-2-22-3-3-33-0-0-00-0-0-5-0|


Verse

G|------------|
D|------------|
A|------------|  X4
E|5-3-2--0-1-2|

G|------------|
D|------------|
A|------------|
E|-14\--------|


Break

G|-----------------------------------------------|
D|-----------------------------------------------|
A|-----------------------------------------------|  X2
E|2-2-2-2-2-2-3-3-3-3-3-3-0-0-0-0-0-0-0-0-0-5-5-0|

G|-0-0--0-0-0--0-0-0--0-0---0-|
D|----------------------------|
A|----------------------------|
E|2-2-22-3-3-33-0-0-00-0-0-5-0|

G|-0-0--0-0-0--0-0-0--0-0---0-|
D|----------------------------|
A|----------------------------|
E|2-2-22-3-3-33-0-0-00-0-0-5-0|


End on

G|------------|
D|------------|
A|------------|
E|2-----------|



Try playing the song with some effect pedals similar to theirs, it'll sound just like the 
recording!

Enjoy!
Добавлено: 23.10.2015
Другие материалы по этой песне:
  • Аккорды и текст

Страница создана 23.10.2015
http://primanota.ru/garden/crystal-clear-chords.htm
Привет, Гость.
Предлагаем пройти революционный курс по гитаре.
Подарок от PrimaNota.Ru, забирай!