PrimaNota.ru - самый крупный в мире бесплатный архив песенных текстов, аккордов, табулатур и нот


The Garden - The Apple - бас-таба, видео

Регистрация Запомнить меня
Войти через:  Facebook Google Twitter Vk Yandex Mail.ru

The Garden - The Apple - бас-таба, видео

Печатать
Просмотров: 78
G|--------------|
D|--------------|
A|-77-8-9-------|
E|--------------|

G|---------------------------------------------------------------------------|
D|---------------------------------------------------------------------------|
A|-77-8-9---0-77-8-9---0-77-8-9---0-77-8-9-----------------------------------|
E|---------------------------------------------------------------------------|

G|---------------------------------------------------------------------------|
D|-5-5-----------------------5-5---------------------------------------------|
A|-7-7-5---------------------7-7-5-------------------------------------------|
E|-----7-------------------------7-------------------------------------------|

Have you ever seen an apple,       You ever seen an apple walking around

G|---------------------------------------------------------------------------|
D|-5-5-----------------------5-5---------------------------------------------|
A|-7-7-5---------------------7-7-5-------------------------------------------|
E|-----7-------------------------7-------------------------------------------|

Have you ever seen an apple,       You ever seen an apple walking around

Добавлено: 19.05.2016
Вам также может быть интересно:
Другие материалы по этой песне:
  • Аккорды и текст

Страница создана 19.05.2016
http://primanota.ru/garden/apple-chords.htm
Привет, Гость.
Предлагаем пройти революционный курс по гитаре.
Подарок от PrimaNota.Ru, забирай!