PrimaNota.ru - самый крупный в мире бесплатный архив песенных текстов, аккордов, табулатур и нот


Garbage - Temptation Waits - аккорды и текст, таба, видео

Регистрация Запомнить меня
Войти через:  Facebook Google Twitter Vk Yandex Mail.ru

Garbage - Temptation Waits - аккорды и текст, таба, видео

Печатать
Просмотров: 110
Авторы: Garbage

Temptation Waits
Garbage
VERSE - Guitars tacet


CHORUS
|----------------|
|----------------|
|-7-----------6--|
|-7--5--8--3--6--|
|-5--5--8--3--4--|
|----3--6--1-----|


VERSE 2 - Same

Wah lead
|----------------------------|
|----------------------------|
|---10---8-10------10---8-10-|
|----------------------------|
|-8----8-------8-8----8------|
|----------------------------|


CHORUS 2 - Same


BRIDGE
|-------------15b17r15-13-|
|-15b17r15----------------|
|----------14-------------|
|-------------------------|
|-------------------------|
|-------------------------|


INTERLUDE
|-------------------------------|
|-------------------------------|
|----15----13-15----17b18r17-15-|
|-------------------------------|
|-13----13-------13-------------|
|-------------------------------|


|-------------------------------|
|-------------------------------|
|----15----13-15----------------|
|-------------------17b18r17-15-|
|-13----13-------13-------------|
|-------------------------------|


VERSE 3 - Everything tacet


CHORUS 3
|-------------------------------|
|-------------------------------|
|-7-----------6-----7-----------|
|-7--5--8--3--6--8--7--5--8--10-|
|-5--5--8--3--4--8--5--5--8--10-|
|----3--6--1-----6-----3--6--8--|


OUTRO
Wah lead
|----------------------------|
|----------------------------|
|---10---8-10------10---8-10-|
|----------------------------|
|-8----8-------8-8----8------|
|----------------------------|



***I Think I'm Paranoid

INTRO/VERSE
|---------------------------------|
|----13----11------------------11-|
|-13----13-----11-----13----11----|
|------------------13----13-------|
|---------------------------------|
|---------------------------------|


PRECHORUS
|-------------------------|
|-------------------------|
|-------------------6---6-|
|-6---6-4---4-2---2-6---4-|
|-6---6-4---4-2---2-4---4-|
|-4---4-2---2-0---0-------|


Lead
|----------------------------|
|-------12-------12-------12-|
|----15-------15-------15----|
|-14-------14-------14-------|
|----------------------------|
|----------------------------|


CHORUS
|------------|
|------------|
|----------8-|
|-9--4--9--8-|
|-9--4--9--6-|
|-7--2--7----|


Lead (played under the Eb5 chord)
1.
|-------------------------|
|-------------------------|
|-10-10-10-10-10-10-10-10-|
|-------------------------|
|-------------------------|
|-------------------------|

2.
|-------------------------|
|-------------------------|
|-8-8-8-8-8-8-8-8-8-8-8-8-|
|-------------------------|
|-------------------------|
|-------------------------|


VERSE 2 - Same


PRECHORUS 2 - Same

Lead (in background)
|-----------------------|
|-9-11b12r11-11b12r11p9-|
|-----------------------|
|-----------------------|
|-----------------------|
|-----------------------|


CHORUS 2 - Same


INTERLUDE
|-------------|
|-------------|
|----------6--|
|-3--3--3--6--|
|-3--3--3--4--|
|-1--1--1-----|


Lead
|-------------------------|
|-------12-------12-------|
|----15-------15-------15-|
|-14-------14-------14----|
|-------------------------|
|-------------------------|


CHORUS 3 - Same


BRIDGE
|-------------------------|
|-------------------------|
|-------------------------|
|-6---6-4---4-2---2-2-2-2-|
|-6---6-4---4-2---2-2-2-2-|
|-4---4-2---2-0---0-0-0-0-|


VERSE 3/OUTRO - Same
Добавлено: 16.01.2014
Другие материалы по этой песне:
  • Аккорды и текст

Страница создана 11.07.2012
http://primanota.ru/garbage/temptation-waits-chords.htm
Привет, Гость.
Предлагаем пройти революционный курс по гитаре.
Подарок от PrimaNota.Ru, забирай!