PrimaNota.ru - самый крупный в мире бесплатный архив песенных текстов, аккордов, табулатур и нот


Garbage - Tell Me Where It Hurts - аккорды и текст, видео

Регистрация Запомнить меня
Войти через:  Facebook Google Twitter Vk Yandex Mail.ru

Garbage - Tell Me Where It Hurts - аккорды и текст, видео

Печатать
Просмотров: 144
Tell Me Where It Hurts
Garbage
Band: Garbage
Song Title: Tell Me Where It Hurts
Tuning: Normal

This is a pretty easy song to play there are a couple of guitar parts. The electric 
seems to be playing power chords and the acoustic is playing a cool harmony part.

Most chords are done as bar chords but you can play regular chords they dont sound as 
but for beginners it can be done.

Chords Used For This Song

     D5     B5    G5    A5    Dm     
    D     A     Bm   C#m    E
E|-----------------------------5-----3-----5-----5-----7-----4-----7-----|
B|-----------------------------6-----3-----5-----5-----7-----5-----8-----|
G|-----7-----4-----------------7-----4-----7-----6-----7-----6-----9-----|
D|-----7-----4-----5-----7-----7-----5-----7-----7-----9-----6-----9-----|
A|-----5-----2-----5-----7-----5-----5-----5-----7-----9-----4-----7-----|
E|-----------------3-----5-----X-----3-----X-----5-----7-----X-----X-----|


Acoustic Guitar Parts.
I am not sure of the names of these chords so I will just come up with names for them.

      (I)   (II) (III)  (IV)
E|-----X-----X-----X-----X-----|
B|-----3-----3-----3-----5-----|
G|-----2-----4-----4-----6-----|
D|-----0-----4-----5-----7-----|
A|-----X-----X-----X-----X-----|
E|-----X-----X-----X-----X-----|

Intro:

Listen to song for changes. The first two chords are played 8 beats each then the rest 
4 beats each.

D5	B5	G5 	A5	G5	A5

First verse is mostly keyboards guitar comes in at the chorus.

Verse I:
What is my day going to look like?
What will my tomorrow bring me?
If I had x-ray eyes, I could see inside
I wouldn't have to predict the future

I wish that you would do with some talking
How else am I to know what you're thinking?
If only people would say what it really was
What it really was
What it really was that they wanted


Chours:


[D5]Tell me where it hurts
to hell with [B5]everybody else
All I [G5]care about is [A5]you and that's the [G5]truth [A5]
They don't [D5]love me; I can tell [B5]
But you[G5] do[A5], so they can go to hell [G5]	[A5]


Verse II:
For the second verse you can play the acoustic part. Liten to song for changes.

      (I)   (II) (III)  (IV)
E|-----X-----X-----X-----X-----|
B|-----3-----3-----3-----5-----|
G|-----2-----4-----4-----6-----|
D|-----0-----4-----5-----7-----|
A|-----X-----X-----X-----X-----|
E|-----X-----X-----X-----X-----|

[I]Did they ever give you a reason
[II]To believe in something different
[III]If you're looking for love, for what it's worth [IV]
[III]I have plenty of it lying around here somewhere [IV]

[I]If you are looking for disappointment
[II]You can find it around any corner
[III]In the middle of the night I hold on to you tight [IV]
[III]So both of us can feel protected [IV]

Chorus:

[D5]Tell me where it hurts
to hell with [B5]everybody else
All I [G5]care about is [A5]you and that's the [G5]truth [A5]
They don't [D5]love me; I can tell [B5]
But you[G5] do[A5], so they can go to hell [G5]	[A5]

Change Up:
Most of these chords are bar chords but song can be played with regular open chords.

There is a cool acoustic picking part in this part of the song. Starting at "I've" It is 
follows. You can play the chords or the picking part.

Acoustic Picking Part
E|-------------------0-------0-------|
B|---3-------3-----------------------|
G|-------2-------2-------2-------2---|
D|-----------------------------------|
A|-----------------------------------|
E|-----------------------------------|

[Dm]I've been loved but I [G]didn't know how to feel it [D]
[Dm]And I've been adored but I [G]don't know if I ever believed it [D]
[Dm]I've been loved my whole life [G]but I didn't know how to take it [D]
Until... [Dm]	[G]	[A]	[B]	[C#m]	[E]

[D5]Tell me where it hurts
to hell with [B5]everybody else
All I [G5]care about is [A5]you and that's the [G5]truth [A5]
They don't [D5]love me; I can tell [B5]
But you[G5] do[A5], so they can go to hell [G5]	[A5]

Outro:
Listen to song for changes.

[D5]	[B5]	[G5]	[A5]
Tell me where it hurts
Tell me where it hurts
Tell me where it hurts now
Tell me where it hurts...
Добавлено: 23.03.2012
Другие материалы по этой песне:

Страница создана 23.03.2012
http://primanota.ru/garbage/tell-me-where-it-hurts-chords.htm
Привет, Гость.
Предлагаем пройти революционный курс по гитаре.
Подарок от PrimaNota.Ru, забирай!