PrimaNota.ru - самый крупный в мире бесплатный архив песенных текстов, аккордов, табулатур и нот


Garbage - Subhuman - текст песни, бас-таба, видео

Регистрация Запомнить меня
Войти через:  Facebook Google Twitter Vk Yandex Mail.ru

Garbage - Subhuman - текст песни, бас-таба, видео

Печатать
Просмотров: 127
Уроки эстрадного вокала в Санкт-Петербурге
Авторы: Duke Erikson, Steve Marker, Shirley Manson, Butch Vig

Title: Subhuman
Artist: Garbage
Album: Subhuman [single; 1995]
My e-mail: xtripmywire@gmail.com

Main riff
G|-------------------------||-----------------------|
D|------7---------77---5-7-||----7---------77---5-7-|
A|--------6r---------7-----||------6r---------7-----|
E|-3/5--------3/5----------||-5--------3/5----------|

this last part of this riff was also played this way [only live]
G|-----------------99---7-9-|
D|------7-------------9-----|
A|--------6r----------------|
E|-3/5--------3/5-----------|

chorus
G|--------|-----------------99---7-9-|    |-----------|
D|--------|------7-------------9-----|    |-----------|
A|-3-2-1~-|--------6r----------------|    |-3-2-1~----|
E|--------|-3/5--------3/5-----------|[x2]|--------4~-|

last chorus
G|--------|-----------------99---7-9-|    |----------------------------|
D|--------|------7-------------9-----|    |----------------------------|
A|-3-2-1~-|--------6r----------------|    |-3-2-1~--6-5-4~---3-2-1~----|
E|--------|-3/5--------3/5-----------|[x2]|-------------------------4~-|
Добавлено: 08.09.2013
Другие материалы по этой песне:
  • Аккорды и текст

Страница создана 31.05.2012
http://primanota.ru/garbage/subhuman-chords.htm
Привет, Гость.
Предлагаем пройти революционный курс по гитаре.
Подарок от PrimaNota.Ru, забирай!