PrimaNota.ru - самый крупный в мире бесплатный архив песенных текстов, аккордов, табулатур и нот


Garbage - Sleep Together - аккорды и текст, таба, видео

Регистрация Запомнить меня
Войти через:  Facebook Google Twitter Vk Yandex Mail.ru

Garbage - Sleep Together - аккорды и текст, таба, видео

Печатать
Просмотров: 136
Авторы: Garbage

Sleep Together
Garbage
INTRO
|------------------------19-------|
|-19----19-18-----18-19-----19-18-|
|----16--------16-----------------|
|---------------------------------|
|---------------------------------|
|---------------------------------|
 

|-------------------------|
|-------------------------|
|-4-----4-----4-----4-----|
|-4--5--4--5--4--5--4--5--|
|-2--5--2--5--2--5--2--5--|
|----3-----3-----3-----3--|


VERSE
|-------------------------|
|-------------------------|
|-4-----4-----4-----4-----|
|-4--5--4--5--4--5--4--5--|
|-2--5--2--5--2--5--2--5--|
|----3-----3-----3-----3--|

|-------------------------|
|-------------------------|
|-4--------2--4-----2--2--|
|-4--5--2--2--4--5--2--2--|
|-2--5--2--0--2--5--0--0--|
|----3--0--------3--------|


CHORUS
(Implied chords)
|-0--3--2--0--|
|-0--3--3--1--|
|-0--0--2--0--|
|-2--0--0--2--|
|-2--2-----3--|
|-0--3--------|


Play intro again


VERSE 2 - Same


CHORUS 2 - Same


OUTRO - With intro lead
|-0-|
|-0-|
|-0-|
|-2-|
|-2-|
|-0-|



***Wicked Ways

INTRO/VERSE
|---------|
|-6/8\6~~-|
|-6/8\6~~-|
|---------|
|---------|
|---------|


Clean lead
|----------------------------|
|---2------2------2------2---|
|-5---5--5---5--5---5--5---5-|
|----------------------------|
|----------------------------|
|----------------------------|


PRECHORUS
|-------------|
|-------------|
|-------6--8--|
|-4--8--6--8--|
|-4--8--4--6--|
|-2--6--------|


CHORUS
|-------------|
|-------------|
|----6-----5--|
|-3--6--6--5--|
|-3--4--6--3--|
|-1-----4-----|


VERSE 2 - Same


PRECHORUS 2 - Same but twice


CHORUS 2 - Same


INTERLUDE
|-------------|
|-------------|
|-------5-----|
|-5--8--5--6--|
|-5--8--3--6--|
|-3--6-----4--|


Lead
|-----------------------------|
|-----------------------------|
|-11b12~~-11b12~~-11b12~~\8~~-|
|-----------------------------|
|-----------------------------|
|-----------------------------|


|---------------------------------------|
|---------------------------------------|
|-11b12~~-11b12~~-11b12~~\8~~-8-7-8-10--|
|---------------------------------------|
|---------------------------------------|
|---------------------------------------|


VERSE 3
|----------6--9\6--9--13--21\18-|
|-------6-----------------------|
|----6--------------------------|
|-8-----------------------------|
|-------------------------------|
|-------------------------------|


PRECHORUS 3 - Same but three times

Lead
|-------------------------|
|-16b18-------------------|
|-------------------------|
|-------------------------|
|--------16b18r16--11~~\--|
|-------------------------|


CHORUS 3
|-------------|
|-------------|
|----6--3-----|
|-3--6--3--4--|
|-3--4--1--4--|
|-1--------2--|


OUTRO
|-------------------------|
|-------------------------|
|-------------------------|
|-4--4--4--4--4--4--4--4--|
|-4--4--4--4--4--4--4--4--|
|-2--2--2--2--2--2--2--2--|

End on
|---|
|---|
|-3-|
|-3-|
|-1-|
|---|


Lead
|-6--9--13--21\18-|
|-----------------|
|-----------------|
|-----------------|
|-----------------|
|-----------------|
Добавлено: 09.03.2014
Другие материалы по этой песне:
  • Аккорды и текст

Страница создана 31.03.2012
http://primanota.ru/garbage/sleep-together-chords.htm
Привет, Гость.
Предлагаем пройти революционный курс по гитаре.
Подарок от PrimaNota.Ru, забирай!