PrimaNota.ru - самый крупный в мире бесплатный архив песенных текстов, аккордов, табулатур и нот


Garbage - Dog New Tricks - текст песни, таба, видео

Регистрация Запомнить меня
Войти через:  Facebook Google Twitter Vk Yandex Mail.ru

Garbage - Dog New Tricks - текст песни, таба, видео

Печатать
Просмотров: 108
Авторы музыки: Duke Erikson, Steve Marker, Shirley Manson, Butch Vig
Авторы текста: Duke Erikson, Steve Marker, Shirley Manson, Butch Vig
Band: Garbage
Song Title: Dog New Tricks
Tuning: Normal

This song was hard to figure out. There is not alot of guitar mostly just random 
noise. The verses are more bass and not guitar. 
Chords Used For This Song

    Bb5   C5    E5    Eb5    F5   F#5   F#m7
E|---------------------------------------2---|
B|---------------------------------------2---|
G|---3-----5-----------8-----------------2---|
D|---3-----5-----2-----8-----3-----4-----2---|
A|---1-----3-----2-----6-----3-----4-----4---|
E|---------------0-----------1-----2-----2---|

Guitar I: Intro Riff (Alubum Version)
b signifies a 1/2 step bend

E|-----------------------------------|----------------------------|
B|-----------------------------------|----------------------------|
G|-----------------------------------|----------------------------|
D|---2--4--5--10--9--5--7--9-|-2--4--5--10--9--5--7--9-b-10-r-9---|
A|---X--X--X--X---X--X--X--X-|-X--X--X--X---X--X--X--X----X---X---|
E|---0--2--3--8---7--3--5--7-|-0--2--3--8---7--3--5--7-b--8-r-7---|

Guitar I: Intro Riff (Beginer Version)
b signifies a 1/2 step bend

E|-----------------------------------|----------------------------|
B|-----------------------------------|----------------------------|
G|-----------------------------------|----------------------------|
D|---2--4--5--10--9--5--7--9-|-2--4--5--10--9--5--7--9-b-10-r-9---|
A|-----------------------------------|----------------------------|
E|-----------------------------------|----------------------------|


Verse 1: No Guitar In Verse

I wish I had not woke up today 
Everyone mistakes the things you say
Take the simple truth and
Twist it all around
Make it sound important
Make it seem profound


Chours 1:	
Guitar I: Plays Chords
Guitar II: Plays Lead
Guitar III: Plays Vocal Lead

Guitar III:
E|-----------------------------|-----------------------------|
B|---8--4--6--6--8--9--8--4--6-|-8--4--6--8--9--8-b1/2-6-7---|
G|-----------------------------|-----------------------------|
D|-----------------------------|-----------------------------|
A|-----------------------------|-----------------------------|
E|-----------------------------|-----------------------------|

[C5]Dog new [Bb5]tricks  
Nothing you [C5]learn will [Bb5]stick 
[C5]Dog new [Bb5]tricks 
You make me [Eb5]feel so [F5]worth [F#5]less 


Verse 2: 
Guitar I: No Guitar In Verse

Everyone I know has gone away 
Died or left or just forgot to stay 
Sometimes took for granted 
Sometimes turned away 
Sometimes didn't say what 
I meant to say 


Chours 2:	
Guitar I: Plays Chords
Guitar II: Plays Lead
Guitar III: Plays Vocal Lead

[C5]Dog new [Bb5]tricks  
Nothing you [C5]learn will [Bb5]stick 
[C5]Dog new [Bb5]tricks 
You make me [Eb5]feel so [F5]worth [F#5]less 


Interlude: Play Twice
Guitar I: Plays Solo
Guitar II: Plays Chords

E|---0-h-2--2-----5--2--------2----|-0-h-2--2-----5--2---------|
B|---0-h-2-----2--------2--5-------|-0-h-2-----2-----------5---|
G|-------------------------------2-|--------------------4------|
D|---------------------------------|---------------------------|
A|---------------------------------|---------------------------|
E|---------------------------------|---------------------------|

[F#m7]Nothing you learn 	[F#m7]Nothing you learn 
[F#m7]Nothing you learn 	[F#m7]Nothing you learn 


Play Intro Twice


Verse 3: 
Guitar I: No Guitar In Verse

I never would have pegged you 
For what you have become 
Everyone lies 
Everyone cheats 
Not like you've done 

Chours 3:	
Guitar I: Plays Chords
Guitar II: Plays Lead
Guitar III: Plays Vocal Lead

[C5]Dog new [Bb5]tricks  
Nothing you [C5]learn will [Bb5]stick 
[C5]Dog new [Bb5]tricks 
You make me [Eb5]feel so [F5]worth [F#5]less 

[C5]Dog new [Bb5]tricks  
Nothing you [C5]learn will [Bb5]stick 
[C5]Dog new [Bb5]tricks 
You make me [Eb5]feel so [F5]worth [F#5]less 

Outro: Play Twice
Guitar I: Plays Solo
Guitar II: Plays Chords

E|---0-h-2--2-----5--2--------2----|-0-h-2--2-----5--2---------|
B|---0-h-2-----2--------2--5-------|-0-h-2-----2-----------5---|
G|-------------------------------2-|--------------------4------|
D|---------------------------------|---------------------------|
A|---------------------------------|---------------------------|
E|---------------------------------|---------------------------|

[F#m7]Nothing you learn 	[F#m7]Nothing you learn 
[F#m7]Nothing you learn 	[F#m7]Nothing you learn 

Play Intro Twice

Добавлено: 04.08.2013
Другие материалы по этой песне:
  • Аккорды и текст

Страница создана 28.05.2012
http://primanota.ru/garbage/dog-new-tricks-chords.htm
Привет, Гость.
Предлагаем пройти революционный курс по гитаре.
Подарок от PrimaNota.Ru, забирай!