PrimaNota.ru - самый крупный в мире бесплатный архив песенных текстов, аккордов, табулатур и нот


Garbage - Badass - текст песни, таба, видео

Регистрация Запомнить меня
Войти через:  Facebook Google Twitter Vk Yandex Mail.ru

Garbage - Badass - текст песни, таба, видео

Печатать
Просмотров: 152
This song was recorded by Garbage in 2003 and released as a b-side with the single "Run
Run", from their album Bleed Like Me, in 2005. It's really fun and easy to play, I
myself by ear. It's not your typical Garbage song but it's one of my favorites, even 
it's extremely annoying.

**Listen to the song for exact timing.**


INTRO/Verse 1/verse 2/verse 3/OUTTRO
e|------------------------------------------|
B|------------------------------------------|
G|---10--10---------10--10------------------|
D|---10--10---------10--10------------------|
A|---8---8---9---9--8---8----9-9/10--9/10---|
E|-----------7---7-----------7-7/8---7/8----|
  (It's guys like you baby....)

Pre-chorus
e|--------------------------------------------------|
B|--------------------------------------------------|
G|---12--------------12--12----12-12-12----12--12---|
D|---12(let ring)----12--12----12-12-12----12--12---|
A|---10--------------10--10----10-10-10----10--10---|
E|--------------------------------------------------|
  (Be my fancy, boy....)


Chorus
e|--------------------------------------------|
B|--------------------------------------------|
G|--------------------------------------------|
D|---8--8--8-8-8--12--12-12--12-12-12---------|
A|---8--8--8-8-8--12--12-12--12-12-12-(X2)----|
E|---6--6--6-6-6--10--10-10--10-10-10---------|
  (So head on home tonight, honey....)

Chorus (pt. 2)
e|----------------------------------------------------------------------|
B|----------------------------------------------------------------------|
D|---5--5--5-5-5--10--10-10--10-10-10/12-12-12-12-12-12-12-12-12--------|
A|---5--5--3-5-5--10--10-10--10-10-10/12-12-12-12-12-12-12-12-12-(X2)---|
E|---3--3--3-3-3--8---8--8---8--8--8-/10-10-10-10-10-10-10-10-10--------|
  (And I swear I'd never tell anybody...)

Breakdown
e|-----------------------------------------------|
B|-----------------------------------------------|
G|---10\----10-------------10\----10-------------|
D|---10\----10-------------10\----10---X-X-X-X---| (repeat several times)
A|---8-\-3/-8----6-6-6-6---8-\-3/-8----X-X-X-X---|
E|-------1/------4-4-4-4-------1/------X-X-X-X---|
  (Think you're such a Badass...)


 ((*LYRICS and ORDER*))

   (INTRO)
 Alright!
 Okay!

 (Verse 1)
  It's guys like you, baby
  That give the boys a bad name
  Keep your hands where I can see 'em
  (mumbles...............)

 [Pre-chorus]
  Be my fancy, boy
  Come to my room
  Glarin' at my thighs
  Turn around that door

 Woop! Woop!
 Alright!
 Okay!

 (Verse 2)
  You have a world of your own
  Ba-da-ba-daaa-ohh
  Such a badass (mumbles)
  And I'm a (mumbles)

 [Pre-chorus]
  Be my fancy, boy
  Come to my room
  Glarin' at my thighs
  Turn around that door

 {Chorus}
  So head on home tonight, honey
  Just be glad we didn't kill anybody
  And I swear I'd never tell anybody
  You were always lookin' at yourself in my MIRROR!
  (UNINTELLIGIBLE)

 Bah-bah-baah-Na
 Bah-bah-bah-Na-na-na-na X3
 Bah-bah-baah-Na
 BAP! BAP! BAP!

 (Verse 3)
  We'll be screamin' like animals when
  I'm on my knees
  I'm feelin' desperate and I
  Heard you were likin' me

 [Pre-chorus]
  Be my fancy, boy
  Come to my room
  Glarin' at my thighs
  Turn around that door

 {Chorus}
  So head on home tonight, honey
  Just be glad we didn't kill anybody
  And I swear I'd never tell anybody
  You were always lookin' at yourself in my MIRROR!
  (UNINTELLIGIBLE)

 (>BREAKDOWN<)
  Think you're such a Badass
  Think you're such a rap
  Think you're such a rebel
  (mumbles)
  (mumbles)
  (mumbles)
  Think you're such a badass
  (mumbles)

 *Slight variation: she merges lyrics from both the Pre-chorus and the Chorus here, but
guitars are playing the chords from the chorus. A quick listen should clear it up easily.*
 [Pre-chorus/Chorus]
  Be my fancy, boy
  Come to my room
  Glarin' at my thighs
  Turn around that door
  Be my fancy, boy
  Glarin' at my thighs
  Turn around that door

 (OUTTRO)
  I'm pure platinum
  Got the disc at home
  Why do I feel so bad?
  (mumbles....)

**NOTE** - I'm 99% positive this is correct. If it sounds off (a half step high or a
step low), PLEASE inform me.
	And..... that's it. Very simple. If you have any problems with the tab or advice,
accusations, death threats, etc., go to my profile and send me a message and/or comment on
page.
************************************

| /   slide up
| \   slide down
Добавлено: 10.11.2013
Другие материалы по этой песне:
  • Аккорды и текст

Страница создана 02.06.2012
http://primanota.ru/garbage/badass-chords.htm
Привет, Гость.
Предлагаем пройти революционный курс по гитаре.
Подарок от PrimaNota.Ru, забирай!