PrimaNota.ru - самый крупный в мире бесплатный архив песенных текстов, аккордов, табулатур и нот


Garage Hymnal - Unity - аккорды и текст, видео

Регистрация Запомнить меня
Войти через:  Facebook Google Twitter Vk Yandex Mail.ru

Garage Hymnal - Unity - аккорды и текст, видео

Печатать
Просмотров: 44
Unity
Garage Hymnal
-------------------------------------------------------------------------------
                             Unity - Garage Hymnal
-------------------------------------------------------------------------------
Tabbed by: Victor Zhang
Capo 3

Intro + Verse
e|---------------------------------------------------------------------------|
B|----------------------------0-----0-----3-----3----------------------------|
G|----0-----0-----2-----2----------------------------------------------------|
D|---0-----0-----0-----0-----2-----2-----2-----2-----------------------------|
A|---------------------------------------------------------------------------|
E|-3-----3-----3-----3-----3-----3-----3-----3-------------------------------|

e|---------------------------------------------------------------------------|
B|----------------------------0-----0-----------3----------------------------|
G|----0-----0-----2-----2-----------------0--2-------------------------------|
D|---0-----0-----0-----0-----2-----2-----------------------------------------|
A|---------------------------------------------------------------------------|
E|-3-----3-----3-----3-----3-----3-----3-------------------------------------|

Verse 1
G
We delight in righteousness
                Em
We rest in your arms, hunger for the lost
              G       Em
Stand here as one, as one


Verse 2
G
We are humbled by your grace
               Em
In awe of your love, long for unity
            G     Em  C
We long for unity


Chorus
        D      C    D            G    D/F#  Em
That we may be one... as you are one
        D       C    D          G
Father, Spirit, Son..., you are one
D/F#    Em
You are one


Bridge
         C            D
There is work for our hands 
               Em
Ground for our feet (Words that must be spoken, Salvation must be spoken)x4
Добавлено: 07.08.2015
Другие материалы по этой песне:
  • Аккорды и текст

Страница создана 07.08.2015
http://primanota.ru/garage-hymnal/unity-chords.htm
Привет, Гость.
Предлагаем пройти революционный курс по гитаре.
Подарок от PrimaNota.Ru, забирай!