PrimaNota.ru - самый крупный в мире бесплатный архив песенных текстов, аккордов, табулатур и нот


Garage Hymnal - Fairest Lord Jesus - таба, видео

Регистрация Запомнить меня
Войти через:  Facebook Google Twitter Vk Yandex Mail.ru

Garage Hymnal - Fairest Lord Jesus - таба, видео

Печатать
Просмотров: 55
FAIREST LORD JESUS - Garage Hymnal

Hey guys, I'm hoping this is an improvement on the previous one. I tabbed that one 
by thoughts, not by ear, and when I tried to play it, I realised it was a bit 
wrong. This is one is better

Tuning: Standard, Capo 3.

Acoustic guitar riff (Intro, Verse, Chorus):

       C                              Cmaj7          Csus2
e|---------0-------0-------0-------0-------0-------0-------0-------0---------|
B|---------1-------1-------1-------1-------0-------0-------3-------3---------|
G|---------0-------0-------0-------0-------0-------0-------0-------0---------|
D|---------------------------------------------------------------------------|
A|-----3-------3-------3-------3-------3-------3-------3-------3-------------|
E|---------------------------------------------------------------------------|  x2

      Am                               Am
e|---------0-------0-------0-------0-------0-------0-------0-------0---------|
B|---------1-------1-------1-------1-------1-------1-------1-------1---------|
G|---------2-------2-------2-------2-------2-------2-------2-------2---------|
D|---------------------------------------------------------------------------|
A|-----0-------0-------0-------0-------0-------0-------0-------0-------------|
E|---------------------------------------------------------------------------|

       F                               F               G
e|---------1-------1-------1-------1-------1-------1-------3-------3---------|
B|---------1-------1-------1-------1-------1-------1-------0-------0---------|
G|---------2-------2-------2-------2-------2-------2-------0-------0---------|
D|---------------------------------------------------------------------------|
A|-----3-------3-------3-------3-------3-------3-----------------------------|
E|-----------------------------------------------------3-------3-------------|  



Electric guitar riff during the verse (I transcribed it relative to capo 3 as well):

e|-----------------------------0-------3---------------3---------------------|
B|-----1-------1-------3-----------------------------------------------------|
G|---------------------------------------------------------------------------|
D|---------------------------------------------------------------------------|
A|---------------------------------------------------------------------------|
E|---------------------------------------------------------------------------|

e|-----------------------------0------/7---------------3---------------------|
B|-----1-------1-------3-----------------------------------------------------|
G|---------------------------------------------------------------------------|
D|---------------------------------------------------------------------------|
A|---------------------------------------------------------------------------|
E|---------------------------------------------------------------------------|

e|-----------------------------0-------3---------------3---------------------|
B|-----1-------1-------3-----------------------------------------------------|
G|---------------------------------------------------------------------------|
D|---------------------------------------------------------------------------|
A|---------------------------------------------------------------------------|
E|---------------------------------------------------------------------------|

e|----/5--------------/7--------------/8---------------/10-------------------|
B|---------------------------------------------------------------------------|
G|---------------------------------------------------------------------------|
D|---------------------------------------------------------------------------|
A|---------------------------------------------------------------------------|
E|---------------------------------------------------------------------------|



************************************

| /   slide up
| \   slide down
| h   hammer-on
| p   pull-off
| ~   vibrato
| +   harmonic
| x   Mute note
| b   Bend
| pb  Pre-bend
| br  Bend release
| pbr Pre-bend release
| brb Bend release bend

************************************
Добавлено: 09.10.2013
Другие материалы по этой песне:
  • Аккорды и текст

Страница создана 09.10.2013
http://primanota.ru/garage-hymnal/fairest-lord-jesus-chords.htm
Привет, Гость.
Предлагаем пройти революционный курс по гитаре.
Подарок от PrimaNota.Ru, забирай!