PrimaNota.ru - самый крупный в мире бесплатный архив песенных текстов, аккордов, табулатур и нот


Gappy Ranks - Heaven In Her Eyes - бас-таба, видео

Регистрация Запомнить меня
Войти через:  Facebook Google Twitter Vk Yandex Mail.ru

Gappy Ranks - Heaven In Her Eyes - бас-таба, видео

Печатать
Просмотров: 56
Heaven In Her Eyes - Gappy Ranks

Intro
G ----------------------------------------------------------------------------------------------------
D ---------------------------3-----------------------3------------------------------------------------
A -------3----5--5--5---3-5-----5----5-5--5-5---3-5-----5---3--3--3-----------3-3--3-3-------3-----3--
E ---5-5----------------------------------------------------------------3--5--------------5-----5-----

G ------------------------------------------------------------------------------------------
D -----------------3-----------------------3------------------------------------------------
A --5--5--5---3-5-----5----5-5--5-5---3-5-----5---3--3--3-----------3-3--3-3------3-----3--
E ------------------------------------------------------------3--5--------------5-----5-----

Verse 1
G ----------------------------------------------------------------------------------------
D ----------------------------------------------------------------------------------------
A ---5--5--5--------3---5-5--5-5------3-----5----3--3--3-----------3-3--3-3------3-----3--
E ---------------5-----------------5-----5-------------------3--5-------------5-----5-----

G ----------------------------------------------------------------------------------------
D ----------------------------------------------------------------------------------------
A ---5--5--5--------3---5-5--5-5------3-----5----3--3--3-----------3-3--3-3------3--------
E ---------------5-----------------5-----5-------------------3--5-------------5-----5--3--

Chorus
G ---------------------------------------------------------------------------------------
D ---------------------------------------------------------------------------------------
A ---3--3--3-----------3-3--3-3------3-----3----5--5--5--------3---5-5--5-5-----5-----5--
E ---------------3--5-------------5-----5-------------------5----------------5-----5-----

G ----------------------------------------------------------------------------------------
D ---3--3--3--------3---5-5--5-5------5-----5---------------------------------------------
A ---------------3-----------------5-----5-------3--3--3-----------3-3--3-3------3--------
E -----------------------------------------------------------3--5-------------5-----5--3--              x2

Verse 2
G ----------------------------------------------------------------------------------------
D ----------------------------------------------------------------------------------------
A ---5--5--5--------3---5-5--5-5------3-----5----3--3--3-----------3-3--3-3------3-----3--
E ---------------5-----------------5-----5-------------------3--5-------------5-----5-----

G ----------------------------------------------------------------------------------------
D ---------------------------------------------------------5-5-5--------------------------
A ---5--5--5--------3---5-5--5-5------3-----5----3--3--3----------3-3--3-3------3-----3--
E ---------------5-----------------5-----5------------------------------------5-----5-----

Verse 3
G ----------------------------------------------------------------------------------------
D ---------------------------------------------------------5-5-5--------------------------
A ---5--5--5--------3---5-5--5-5------3-----5----3--3--3----------3-3--3-3------3-----3--
E ---------------5-----------------5-----5------------------------------------5-----5-----

G ----------------------------------------------------------------------------------------
D ----------------------------------------------------------------------------------------
A ---5--5--5--------3---5-5--5-5------3-----5----3--3--3-----------3-3--3-3------3--------
E ---------------5-----------------5-----5-------------------3--5-------------5-----5--3--

Chorus
G ---------------------------------------------------------------------------------------
D ---------------------------------------------------------------------------------------
A ---3--3--3-----------3-3--3-3------3-----3----5--5--5--------3---5-5--5-5-----5-----5--
E ---------------3--5-------------5-----5-------------------5----------------5-----5-----

G ----------------------------------------------------------------------------------------
D ---3--3--3--------3---5-5--5-5------5-----5---------------------------------------------
A ---------------3-----------------5-----5-------3--3--3-----------3-3--3-3------3--------
E -----------------------------------------------------------3--5-------------5-----5--3--              x2

Outro
G ------------------------------------------------------------------------------------------
D -----------------3-----------------------3------------------------------------------------
A --5--5--5---3-5-----5----5-5--5-5---3-5-----5---3--3--3-----------3-3--3-3------3-----3--
E ------------------------------------------------------------3--5--------------5-----5-----

G ------------------------------------------------------------------------------------------
D -----------------3-----------------------3------------------------------------------------
A --5--5--5---3-5-----5----5-5--5-5---3-5-----5---3--3--3---3-------3-3--3-3------3-----3--
E ------------------------------------------------------------3--5--------------5-----5-----

G ---------------------------------------------------------------------------------------------
D ------------------------------------------------------------5-5-5----------------------------
A ---5--5--5-----5--------5-5--5-5------3-----5----3--3--3---3----------3-3--3-3------3-----3--
E -----------------5--3--------------5-----5---------------------------------------5-----5-----

G ---------------------------------------------------
D -----------------3-----------------------3---------
A --5--5--5---3-5-----5----5-5--5-5---5-5-----5---3--
E ---------------------------------------------------
Добавлено: 20.06.2016
Другие материалы по этой песне:
  • Аккорды и текст

Страница создана 20.06.2016
http://primanota.ru/gappy-ranks/heaven-in-her-eyes-chords.htm
Привет, Гость.
Предлагаем пройти революционный курс по гитаре.
Подарок от PrimaNota.Ru, забирай!