PrimaNota.ru - самый крупный в мире бесплатный архив песенных текстов, аккордов, табулатур и нот


Ganz Schn Feist - Weit Du Noch Im Letzten Sommer - таба, видео

Регистрация Запомнить меня
Войти через:  Facebook Google Twitter Vk Yandex Mail.ru

Ganz Schn Feist - Weit Du Noch Im Letzten Sommer - таба, видео

Печатать
Просмотров: 106
-------------------------------------------------------------------------------
             WEIßT DU NOCH IM LETZTEN SOMMER - Ganz Schön Feist                 
-------------------------------------------------------------------------------

Album:  In Echt (Live)
Year:   2001

Tabbed by: seblime
Email: sebbie@web.de
Key: E

This is not 100% accurate but it sounds fine to me.
Listen to the song to figure out the rhythm.

Intro:

guitar 1:
e|-11-12----------|-4h5/7--/9--7---|-12-11-12-16----|-4h5/7--/9--7---|
B|------12--------|----------------|-------------12-|----------------|
G|----------------|----------------|----------------|----------------|
D|----------------|----------------|----------------|----------------|
A|----------------|----------------|----------------|----------------|
E|----------------|----------------|----------------|----------------|

guitar 2:
e|-0----0---------|-0---0----------|-0-----------0--|-0---0----------|
B|-5----0---------|-0---0----------|-5-----------0--|-0---0----------|
G|-4----2---------|-1---4----------|-4-----------2--|-1---4----------|
D|-2----2---------|-2---4----------|-2-----------2--|-2---4----------|
A|-4----0---------|-2---2----------|-4-----------0--|-2---2----------|
E|-0----0---------|-0---x----------|-0-----------0--|-0---x----------|

Verse 1:

guitar 1:
(mute all notes with your fingers... sorry couldn't figure that out)

guitar 2:
e|------0---------|-0---0----------|-0-----0--------|-0---0----------|
B|-4---------0----|-0---0----------|----4------0----|-0---0----------|
G|-----------2----|-1---4----------|-----------2----|-1---4----------|
D|----------------|-2---4----------|----------------|-2---4----------|
A|-4---------0----|-2---2----------|----4------0----|-2---2----------|
E|----------------|-0---x----------|----------------|-0---x----------|

e|-0-----0--------|-0---0----------|-0-----0--------|-0---0----------|
B|----4------0----|-0---0----------|----4------0----|-0---0----------|
G|-----------2----|-1---4----------|-----------2----|-1---4----------|
D|----------------|-2---4----------|----------------|-2---4----------|
A|----4------0----|-2---2----------|----4------0----|-2---2----------|
E|----------------|-0---x----------|----------------|-0---x----------|

Chorus 1:
"Weißt du noch im ..."

guitar 1:
e|------0---------|-0---0----------|-0-----0--------|-0---0----------|
B|-4--------------|-0---0----------|----4-----------|-0---0----------|
G|-----------4----|-1---4----------|-----------4----|-1---4----------|
D|----------------|-2---4----------|----------------|-2---4----------|
A|----------------|-2---2----------|----------------|-2---2----------|
E|----------------|-0---x----------|----------------|-0---x----------|

e|-0-----0-4------|-0---0----------|------0---------|-0---0----------|
B|----4-----------|-0---0----------|-4--------------|-0---0----------|
G|-----------4----|-1---4----------|-----------4----|-1---4----------|
D|----------------|-2---4----------|----------------|-2---4----------|
A|----------------|-2---2----------|----------------|-2---2----------|
E|----------------|-0---x----------|----------------|-0---x----------|

guitar 2:
e|------0---------|-0---0----------|-0-----0--------|-0---0----------|
B|-4---------0----|-0---0----------|----4------0----|-0---0----------|
G|-----------2----|-1---4----------|-----------2----|-1---4----------|
D|----------------|-2---4----------|----------------|-2---4----------|
A|-4---------0----|-2---2----------|----4------0----|-2---2----------|
E|----------------|-0---x----------|----------------|-0---x----------|

e|-0-----0--------|-0---0----------|------0---------|-0---0----------|
B|----4------0----|-0---0----------|-4---------0----|-0---0----------|
G|-----------2----|-1---4----------|-----------2----|-1---4----------|
D|----------------|-2---4----------|----------------|-2---4----------|
A|----4------0----|-2---2----------|-4---------0----|-2---2----------|
E|----------------|-0---x----------|----------------|-0---x----------|

(both guitars)
e|-------0-------0|-------0--------|
B|-----2-------2--|-----2----------|
G|---2-------2----|---2------------|
D|----------------|----------------|
A|-0-------0------|-0-------0------|
E|----------------|----------------|

Verse 2
(like Verse 1 with small variations)

Chorus 2
guitar 1:
e|-0-------0------|-0-------0------|-0-------0------|-0-------0------|
B|-0-------0------|-0-------0------|-0-------0------|-0-------0------|
G|-9-------x------|-1-------4------|-9-------x------|-1-------4------|2x
D|-9-------9------|-2-------4------|-9-------9------|-2-------4------|
A|-7-------7------|-2-------2------|-7-------7------|-2-------2------|
E|-0-------5------|-0-------x------|-0-------5------|-0-------x------|

guitar 2:
e|-0-------0------|-0-------0------|-0-------0------|-0-------0------|
B|-5-------0------|-0-------0------|-5-------0------|-0-------0------|
G|-4-------2------|-1-------4------|-4-------2------|-1-------4------|2x
D|-2-------2------|-2-------4------|-2-------2------|-2-------4------|
A|-4-------0------|-2-------2------|-4-------0------|-2-------2------|
E|-0-------x------|-0-------x------|-0-------x------|-0-------x------|

Bridge:
(both guitars)

  "Du hast im selben Hotel ..."
e|-------0-------0|-------0-------0|-------0-------0|-------0-------0|
B|-----2-------2--|-----0-------4--|-----2-------2--|-----0-------4--|
G|---2-------2----|---1-------4----|---2-------2----|---1-------4----|
D|----------------|----------------|----------------|----------------|
A|-0-------0------|---------2------|-0-------0------|---------2------|
E|----------------|-0--------------|----------------|-0--------------|

  "Wir sind geschwommen ..."        "Am nächsten Morgen war ..."
e|-------0-------0|-------2-------0|------0---------|-0-------0------|
B|-----2-------2--|-----2-------4--|-4---------0----|-0-------0------|
G|---2-------2----|---2-------4----|-----------2----|-0-------4------|
D|----------------|----------------|----------------|-1-------4------|
A|-0-------0------|---------2------|-4---------0----|-1-------2------|
E|----------------|-2--------------|----------------|-2-------x------|

Chorus 3
(like Chorus 2)

after third chorus
e|-------0--------|
B|-----2----------|
G|---2------------|
D|----------------|
A|-2-------2------|
E|----------------|

Verse 3
(like Verse 1 with small variations)

Chorus 4
(like Chorus 2 and 3)

guitar 1:

"Sooo fing es an ..."              
e|-0-------0------|-0-------0------|
B|-0-------0------|-0-------0------|
G|-9-------x------|-1-------4------|3x
D|-9-------9------|-2-------4------|
A|-7-------7------|-2-------2------|
E|-0-------5------|-0-------x------|

guitar 2:
e|-0-------0------|-0-------0------|
B|-5-------0------|-0-------0------|
G|-4-------2------|-1-------4------|3x
D|-2-------2------|-2-------4------|
A|-4-------0------|-2-------2------|
E|-0-------x------|-0-------x------| 

Outro:

e|-0--------------|
B|-0--------------|
G|-2--------------|
D|-2--------------|
A|-0--------------|
E|----------------|

| /  slide up
| \  slide down
| h  hammer-on
| p  pull-off
| ~  vibrato
| +  harmonic
| x  Mute note

=================================================
Lyrics

Weißt Du Noch Im Letzten Sommer

Es war die Sonne, es war der Mond 
Es war die Wärme, die in deinen Augen wohnt 
Es war nur einmal und dann nie mehr 
Es war am Strand und es ist viel zu lange her 
 
Weißt du noch im letzten Sommer 
Weißt du noch, wie es begann? 
Es war wie Blitz und Donner  
So fing es an 
Ich denke oft daran 
 
Wir saßen beide Hand in Hand 
Aßen Oliven, spuckten Kerne in den Sand 
Die Sonne brannte auf unserer Haut 
Wir spürten beide wie der Alltag taut
 
Weißt du noch im letzten Sommer 
Weißt du noch wie es begann? 
Es war wie Blitz und Donner  
So fing es an 
Ich denke oft daran 
 
Du hast im selben Hotel wie ich gewohnt 
Unter der selben Sonne hamm wir uns gesonnt 
Wir sind geschwommen im selben Meer 
Am nächsten Morgen war dein Strandkorb leer 
 
Weißt du noch im letzten Sommer 
Weißt du noch wie es begann? 
Es war wie Blitz und Donner  
So fing es an 
Ich denke oft daran 
 
Wieder zuhause, der Alltag kommt 
In meiner Wohnung ist es so ungewohnt 
Aber immer wenn die Sonne kommt, 
Spür ich die Wärme, die in deinen Augen wohnt 
 
Weißt du noch im letzten Sommer 
Weißt du noch, wie es begann? 
Es war wie Blitz und Donner 
So fing es an 
Ich denke oft daran
So fing es an 
Ich denke oft daran
So fing es an 
Ich denke oft daran

===============================================================================
Добавлено: 10.03.2012
Другие материалы по этой песне:
  • Аккорды и текст

Страница создана 10.03.2012
http://primanota.ru/ganz-schn-feist/weit-du-noch-im-letzten-sommer-chords.htm
Привет, Гость.
Предлагаем пройти революционный курс по гитаре.
Подарок от PrimaNota.Ru, забирай!