PrimaNota.ru - самый крупный в мире бесплатный архив песенных текстов, аккордов, табулатур и нот


Ganz Schn Feist - Niemand - таба, видео

Регистрация Запомнить меня
Войти через:  Facebook Google Twitter Vk Yandex Mail.ru

Ganz Schn Feist - Niemand - таба, видео

Печатать
Просмотров: 148
Уроки эстрадного вокала в Санкт-Петербурге
Niemand
by Ganz Schön Feist


Das Stück ist ja eigentlich für Klavier, aber ich hab für dieses wunderschöne 
Lied mal versucht eine Version für Gitarre herausuihören. 
Hier schon mal, wie in etwa die Akkorde sein müssen:

Am7    x02213
C      x32010
G      x20003
Am     x02210
Asus2  x02000
F      133211
G/H    320033

Das Ganze ist im 6/8-Takt und Capo 4. So in etwa spielen die hier das Am7:

-|| Am7         | let ring    ||
e||-------3---3-|-~-----------||
B||-------1---1-|-~-----------||
G||-----2-------|-------------||
D||-------------|-------------||
A||-0-----------|-------------||
E||-------------|-------------||


Verses:

-|:  C           | G           | Am          | Asus2       1x|
e||--------0-----|-------3-----|-------0-----|-------0------||
B||*-----1---1---|-----0---0---|-----1---1---|-----0---0---*||
G||----0-------0-|---0-------0-|---2-------2-|---0-------0--||
D||--------------|-------------|-------------|--------------||
A||*-3-----------|-2-----------|-0-----------|-0-----------*||
E||--------------|-------------|-------------|--------------||

-| F           | G/H         | C           | Asus2       |
e|-------1-----|-------3-----|-------------|-------0-----|
B|-----1---1---|-----3---3---|-----1-----1-|-----0---0---|
G|---2-------2-|---0-------0-|---0-----0---|---0-------0-|
D|-------------|-------------|-------------|-------------|
A|-------------|-------------|-3-----2-----|-0-----------|
E|-1-----------|-3-----------|-------------|-------------|

-| F           | G/H         | Am7         | let ring    ||
e|-------1-----|-------3-----|-------3---3-|-~-----------||
B|-----1---1---|-----3---3---|-------1---1-|-~-----------||
G|---2-------1-|---0-------0-|-----2-------|-------------||
D|-------------|-------------|-------------|-------------||
A|-------------|-------------|-0-----------|-------------||
E|-1-----------|-3-----------|-------------|-------------||

Die Verses werde ich auch noch mal als GuitarPro-Datei einstellen, 
wo das dann ein bisschen näher am Original ist.

Beim Chorus müsst ihr selber mal ausprobieren.



Verse 1:
      C            G                Am      Asus2
Nicht alles was du tust, das ist in Ordnung,
     C           G             Am    Asus2
aber niemand tut soooo gut wie du,
         F         G           C                Asus2
weil ich in deiner Nähe vieles mit andern Augen sehe.
F           G          Am7
Niemand tut so gut wie du.

Verse 2:
      C            G                  Am      Asus2
Nicht alles was du denkst, das ist in Ordnung,
     C             G              Am    Asus2
aber niemand denkt soooo viel wie du,
               F        G     C               Asus2
Du bringst mit deinen Gedanken meine Welt zum Wanken
F           G          Am7
Niemand tut so gut wie du.

Chorus 1:
       G                         Am
Du bist nicht eine meiner Launen, bist nicht mein Zeitvertreib.
         G                 Am
Über mich selber zu staunen gibst du mir die Möglichkeit.
F             G               C             Am
Manchmal ohne dass du's merkst sehe ich dir zu.
F           G          Am7
Niemand tut so gut wie du.

Verse 3:
      C            G                 Am      Asus2
Nicht alles was du sagst, das ist in Ordnung,
     C               G         Am   Asus2
aber niemand sagt es soooo wie du.
    F            G              C         Am
Der Klang deiner Stimme berührt all meine Sinne.
F           G          Am7
Niemand tut so gut wie du.

|-- Klavier Solo --|

Chorus 2:
       G            Am
Weil du alles gibst, und nichts verlangst,
G                Am
ist es unendlich, was du von mir haben kannst.
     F               G        C    Am
Du berührst so viele Dinge in mir,
                 F     G                 Am     Asus2
dass ich alles gewinne, wenn ich mich verlier'.
              F      G        C    Am
Du berührst so viele Dinge in mir,
                 F     G                 Am7
dass ich alles gewinne, wenn ich mich verlier'.
                 F     G                 Am7
dass ich alles gewinne, wenn ich mich verlier'.



Viel Spaß! NeoBurn
Добавлено: 15.04.2012
Другие материалы по этой песне:

Страница создана 15.04.2012
http://primanota.ru/ganz-schn-feist/niemand-chords.htm
Привет, Гость.
Предлагаем пройти революционный курс по гитаре.
Подарок от PrimaNota.Ru, забирай!